Oops, an error
Loading. Please wait.

Faded Tab

ver4
ver4

Whole song

More versions @911Tabs.com
337 views 1 this week
2 commentsread comments
1 2 3 4 5
excellent!
x 1
add to favorites launch autoscroll
font size
0
reset
Autoscroll
+/-
esc
set tempo
stop
Contributor
Difficulty
Tuning
novice
D A D G B E
WARNING: You are trying to view
                                    content from Ultimate-Guitar.com
                                    in an unauthorized application,
                                    which is prohibited.

                                    Please use an official Ultimate
                                    Guitar Tabs application for iPhone,
                                    iPad or Android to access legitimate
                                    chords, guitar, bass, and drum tabs
                                    from Ultimate-Guitar.com database.

                                    Type "ultimate guitar tabs" in Apple
                                    App Store's or Android Market's
                                    search to find the application.
Faded
Default
The Fallout (2001)

Faded:  written by Jeremy Hora and Chad Kroeger

GTR I - Drop D Tuning (e,B,G,D,A,D)
GTR II - Drop D Tuning (e,B,G,D,A,D)

Intro

  GTR I
e|-------------------------------------|-------------------------------------|
B|-------------------------------------|-------------------------------------|
G|-------------------------------------|-------------------------------------|
D|-------------------------------------|-------------------------------------|
A|-------------------------------------|-------------------------------------|
D|-------------------------------------|-------------------------------------|
 |
 |GTR II
e|-------------------------------------|-------------------------------------|
B|-------------------------------------|-------------------------------------|
G|--7-----------7--7--7-----6-----7----|--------------------7-----6-----7----|
D|--7-----------7--7--7-----6-----7----|--5-----------------7-----6-----7----|
A|--5-----------5--5--5-----4-----5----|--5-----------------5-----4-----5----|
D|-------------------------------------|--5----------------------------------|

  GTR I
e|-------------------------------------|-------------------------------------|
B|-------------------------------------|-------------------------------------|
G|-------------------------------------|-------------------------------------|
D|-------------------------------------|--2-----2-----2-----5-----5-----5----|
A|-------------------------------------|--2-----2-----2-----5-----5-----5----|
D|-------------------------------------|--2-----2-----2-----5-----5-----5----|
 |
 |GTR II
e|-------------------------------------|-------------------------------------|
B|-------------12----------------12----|-------------------------------------|
G|-------------11----------------11----|-------------------------------------|
D|--9--------9--9-----9--------9--9----|--2-----2-----2-----5-----5-----5----|
A|--9--------9--9-----9--------9--9----|--2-----2-----2-----5-----5-----5----|
D|--9--------9--9-----9--------9--9----|--2-----2-----2-----5-----5-----5----|

Pre Verse

  GTR I,II
e|-------------------------------------|-------------------------------------|
B|-------------------------------------|-------------------------------------|
G|--7-----------7--7--7-----6-----7----|--------------------7-----6-----7----|
D|--7-----------7--7--7-----6-----7----|--5-----------------7-----6-----7----|
A|--5-----------5--5--5-----4-----5----|--5-----------------5-----4-----5----|
D|-------------------------------------|--5----------------------------------|

  GTR I,II
e|-------------------------------------|-------------------------------------|
B|-------------------------------------|-------------------------------------|
G|-------------------------------------|-------------------------------------|
D|--9--------9--9-----9--------9--9----|--2-----2-----------5-----5----------|
A|--9--------9--9-----9--------9--9----|--2-----2-----------5-----5----------|
D|--9--------9--9-----9--------9--9----|--2-----2-----------5-----5----------|

  GTR I,II
e|-------------------------------------|-------------------------------------|
B|-------------------------------------|-------------------------------------|
G|--7-----------7--7--7-----6-----7----|--------------------7-----6-----7----|
D|--7-----------7--7--7-----6-----7----|--5-----------------7-----6-----7----|
A|--5-----------5--5--5-----4-----5----|--5-----------------5-----4-----5----|
D|-------------------------------------|--5----------------------------------|

  GTR I,II
e|-------------------------------------|-------------------------------------|
B|-------------------------------------|-------------------------------------|
G|-------------------------------------|-------------------------------------|
D|--9--------9--9-----9--------9--9----|--2-----2-----------5-----5----------|
A|--9--------9--9-----9--------9--9----|--2-----2-----------5-----5----------|
D|--9--------9--9-----9--------9--9----|--2-----2-----------5-----5----------|

Verse

  GTR I
e|-------------------------------------|-------------------------------------|
B|-------------------------------------|-------------------------------------|
G|--7----------------------------------|-------------------------------------|
D|--7----------------------------------|-------------------------------------|
A|--5----------------------------------|-------------------------------------|
D|-------------------------------------|-------------------------------------|
 |
 |GTR II
e|-------------------------------------|-------------------------------------|
B|-------------------------------------|-------------------------------------|
G|--7-----------------------6/----7----|-------------------------------------|
D|--7-----------------------6/----7----|--5----------------------------------|
A|--5-----------------------4/----5----|--5----------------------------------|
D|-------------------------------------|--5----------------------------------|

  GTR II
e|-------------------------------------|-------------------------------------|
B|-------------------------------------|-------------------------------------|
G|--7-----------------------6/----7----|--4-----------------6----------------|
D|--7-----------------------6/----7----|-----------4-----------------7-------|
A|--5-----------------------4/----5----|--------------2-----------------5----|
D|-------------------------------------|-------------------------------------|

  GTR II
e|-------------------------------------|-------------------------------------|
B|-------------------------------------|-------------------------------------|
G|--7-----------------------6/----7----|-------------------------------------|
D|--7-----------------------6/----7----|--5----------------------------------|
A|--5-----------------------4/----5----|--5----------------------------------|
D|-------------------------------------|--5----------------------------------|

  GTR II
e|-------------------------------------|-------------------------------------|
B|-------------------------------------|-------------------------------------|
G|--7-----------------------6/----7----|--4-----------------6----------------|
D|--7-----------------------6/----7----|-----------4-----------------7-------|
A|--5-----------------------4/----5----|--------------2-----------------5----|
D|-------------------------------------|-------------------------------------|

  GTR I
e|-------------------------------------|-------------------------------------|
B|-------------------------------------|-------------------------------------|
G|--7----------------------------------|-------------------------------------|
D|--7----------------------------------|-------------------------------------|
A|--5----------------------------------|-------------------------------------|
D|-------------------------------------|-------------------------------------|
 |
 |GTR II
e|-------------------------------------|-------------------------------------|
B|-------------------------------------|-------------------------------------|
G|--7-----------------------6/----7----|-------------------------------------|
D|--7-----------------------6/----7----|--5----------------------------------|
A|--5-----------------------4/----5----|--5----------------------------------|
D|-------------------------------------|--5----------------------------------|

  GTR II
e|-------------------------------------|-------------------------------------|
B|-------------------------------------|-------------------------------------|
G|--7-----------------------6/----7----|--4-----------------6----------------|
D|--7-----------------------6/----7----|-----------4-----------------7-------|
A|--5-----------------------4/----5----|--------------2-----------------5----|
D|-------------------------------------|-------------------------------------|

  GTR II
e|-------------------------------------|-------------------------------------|
B|-------------------------------------|-------------------------------------|
G|--7-----------------------6/----7----|-------------------------------------|
D|--7-----------------------6/----7----|--5----------------------------------|
A|--5-----------------------4/----5----|--5----------------------------------|
D|-------------------------------------|--5----------------------------------|

  GTR II
e|-------------------------------------|-------------------------------------|
B|-------------------------------------|-------------------------------------|
G|--7-----------------------6/----7----|--4-----------------6----------------|
D|--7-----------------------6/----7----|-----------4-----------------7-------|
A|--5-----------------------4/----5----|--------------2-----------------5----|
D|-------------------------------------|-------------------------------------|

Chorus

  GTR I,II
e|-------------------------------------|-------------------------------------|
B|-------------------------------------|-------------------------------------|
G|--7-----------7--7--7-----6-----7----|--------------------7-----6-----7----|
D|--7-----------7--7--7-----6-----7----|--5-----------------7-----6-----7----|
A|--5-----------5--5--5-----4-----5----|--5-----------------5-----4-----5----|
D|-------------------------------------|--5----------------------------------|

  GTR I,II
e|-------------------------------------|-------------------------------------|
B|-------------------------------------|-------------------------------------|
G|-------------------------------------|-------------------------------------|
D|--9-----------------9----------------|--2-----2-----2-----5-----5-----5----|
A|--9-----------------9----------------|--2-----2-----2-----5-----5-----5----|
D|--9-----------------9----------------|--2-----2-----2-----5-----5-----5----|

  GTR I,II
e|-------------------------------------|-------------------------------------|
B|-------------------------------------|-------------------------------------|
G|--7-----------7--7--7-----6-----7----|--------------------7-----6-----7----|
D|--7-----------7--7--7-----6-----7----|--5-----------------7-----6-----7----|
A|--5-----------5--5--5-----4-----5----|--5-----------------5-----4-----5----|
D|-------------------------------------|--5----------------------------------|

  GTR I,II
e|-------------------------------------|-------------------------------------|
B|-------------------------------------|-------------------------------------|
G|-------------------------------------|-------------------------------------|
D|--9--------9--9-----9--------9--9----|--2-----2-----------5-----5----------|
A|--9--------9--9-----9--------9--9----|--2-----2-----------5-----5----------|
D|--9--------9--9-----9--------9--9----|--2-----2-----------5-----5----------|

Verse

  GTR I
e|-------------------------------------|-------------------------------------|
B|-------------------------------------|-------------------------------------|
G|--7----------------------------------|-------------------------------------|
D|--7----------------------------------|-------------------------------------|
A|--5----------------------------------|-------------------------------------|
D|-------------------------------------|-------------------------------------|
 |
 |GTR II
e|-------------------------------------|-------------------------------------|
B|-------------------------------------|-------------------------------------|
G|--7-----------------------6/----7----|-------------------------------------|
D|--7-----------------------6/----7----|--5----------------------------------|
A|--5-----------------------4/----5----|--5----------------------------------|
D|-------------------------------------|--5----------------------------------|

  GTR II
e|-------------------------------------|-------------------------------------|
B|-------------------------------------|-------------------------------------|
G|--7-----------------------6/----7----|--4-----------------6----------------|
D|--7-----------------------6/----7----|-----------4-----------------7-------|
A|--5-----------------------4/----5----|--------------2-----------------5----|
D|-------------------------------------|-------------------------------------|

  GTR II
e|-------------------------------------|-------------------------------------|
B|-------------------------------------|-------------------------------------|
G|--7-----------------------6/----7----|-------------------------------------|
D|--7-----------------------6/----7----|--5----------------------------------|
A|--5-----------------------4/----5----|--5----------------------------------|
D|-------------------------------------|--5----------------------------------|

  GTR II
e|-------------------------------------|-------------------------------------|
B|-------------------------------------|-------------------------------------|
G|--7-----------------------6/----7----|--4-----------------6----------------|
D|--7-----------------------6/----7----|-----------4-----------------7-------|
A|--5-----------------------4/----5----|--------------2-----------------5----|
D|-------------------------------------|-------------------------------------|

  GTR I
e|-------------------------------------|-------------------------------------|
B|-------------------------------------|-------------------------------------|
G|--7----------------------------------|-------------------------------------|
D|--7----------------------------------|-------------------------------------|
A|--5----------------------------------|-------------------------------------|
D|-------------------------------------|-------------------------------------|
 |
 |GTR II
e|-------------------------------------|-------------------------------------|
B|-------------------------------------|-------------------------------------|
G|--7-----------------------6/----7----|-------------------------------------|
D|--7-----------------------6/----7----|--5----------------------------------|
A|--5-----------------------4/----5----|--5----------------------------------|
D|-------------------------------------|--5----------------------------------|

  GTR II
e|-------------------------------------|-------------------------------------|
B|-------------------------------------|-------------------------------------|
G|--7-----------------------6/----7----|--4-----------------6----------------|
D|--7-----------------------6/----7----|-----------4-----------------7-------|
A|--5-----------------------4/----5----|--------------2-----------------5----|
D|-------------------------------------|-------------------------------------|

  GTR II
e|-------------------------------------|-------------------------------------|
B|-------------------------------------|-------------------------------------|
G|--7-----------------------6/----7----|-------------------------------------|
D|--7-----------------------6/----7----|--5----------------------------------|
A|--5-----------------------4/----5----|--5----------------------------------|
D|-------------------------------------|--5----------------------------------|

  GTR II
e|-------------------------------------|-------------------------------------|
B|-------------------------------------|-------------------------------------|
G|--7-----------------------6/----7----|--4-----------------6----------------|
D|--7-----------------------6/----7----|-----------4-----------------7-------|
A|--5-----------------------4/----5----|--------------2-----------------5----|
D|-------------------------------------|-------------------------------------|

Chorus

  GTR I,II
e|-------------------------------------|-------------------------------------|
B|-------------------------------------|-------------------------------------|
G|--7-----------7--7--7-----6-----7----|--------------------7-----6-----7----|
D|--7-----------7--7--7-----6-----7----|--5-----------------7-----6-----7----|
A|--5-----------5--5--5-----4-----5----|--5-----------------5-----4-----5----|
D|-------------------------------------|--5----------------------------------|

  GTR I,II
e|-------------------------------------|-------------------------------------|
B|-------------------------------------|-------------------------------------|
G|-------------------------------------|-------------------------------------|
D|--9-----------------9----------------|--2-----2-----2-----5-----5-----5----|
A|--9-----------------9----------------|--2-----2-----2-----5-----5-----5----|
D|--9-----------------9----------------|--2-----2-----2-----5-----5-----5----|

  GTR I,II
e|-------------------------------------|-------------------------------------|
B|-------------------------------------|-------------------------------------|
G|--7-----------7--7--7-----6-----7----|--------------------7-----6-----7----|
D|--7-----------7--7--7-----6-----7----|--5-----------------7-----6-----7----|
A|--5-----------5--5--5-----4-----5----|--5-----------------5-----4-----5----|
D|-------------------------------------|--5----------------------------------|

  GTR I,II
e|-------------------------------------|-------------------------------------|
B|-------------------------------------|-------------------------------------|
G|-------------------------------------|-------------------------------------|
D|--9--------9--9-----9--------9--9----|--2-----2-----------5-----5----------|
A|--9--------9--9-----9--------9--9----|--2-----2-----------5-----5----------|
D|--9--------9--9-----9--------9--9----|--2-----2-----------5-----5----------|

  GTR I,II
e|-------------------------------------|-------------------------------------|
B|-------------------------------------|-------------------------------------|
G|--7-----------7--7--7-----6-----7----|--------------------7-----6-----7----|
D|--7-----------7--7--7-----6-----7----|--5-----------------7-----6-----7----|
A|--5-----------5--5--5-----4-----5----|--5-----------------5-----4-----5----|
D|-------------------------------------|--5----------------------------------|

  GTR I,II
e|-------------------------------------|-------------------------------------|
B|-------------------------------------|-------------------------------------|
G|-------------------------------------|-------------------------------------|
D|--9-----------------9----------------|--2-----2-----2-----5-----5-----5----|
A|--9-----------------9----------------|--2-----2-----2-----5-----5-----5----|
D|--9-----------------9----------------|--2-----2-----2-----5-----5-----5----|

  GTR I,II
e|-------------------------------------|-------------------------------------|
B|-------------------------------------|-------------------------------------|
G|--7-----------7--7--7-----6-----7----|--------------------7-----6-----7----|
D|--7-----------7--7--7-----6-----7----|--5-----------------7-----6-----7----|
A|--5-----------5--5--5-----4-----5----|--5-----------------5-----4-----5----|
D|-------------------------------------|--5----------------------------------|

  GTR I,II
e|-------------------------------------|-------------------------------------|
B|-------------------------------------|-------------------------------------|
G|-------------------------------------|-------------------------------------|
D|--9--------9--9-----9--------9--9----|--2-----2-----------5-----5----------|
A|--9--------9--9-----9--------9--9----|--2-----2-----------5-----5----------|
D|--9--------9--9-----9--------9--9----|--2-----2-----------5-----5----------|

Solo

  GTR I
e|-------------------------------------|-------------------------------------|
B|-------------------------------------|-------------------------------------|
G|--7-----7--7--7--7--7-----6-----7----|--9-----7--7--7--7--7-----6-----7----|
D|--x-----x--x--x--x--x-----x-----x----|--x-----x--x--x--x--x-----x-----x----|
A|--5-----5--5--5--5--5-----4-----5----|--7-----5--5--5--5--5-----4-----5----|
D|-------------------------------------|-------------------------------------|
 |
 |GTR II
e|-------------------------------------|-------------------------------------|
B|-------------------------------------|-------------------------------------|
G|--7-----------7--7--7-----6-----7----|--------------------7-----6-----7----|
D|--7-----------7--7--7-----6-----7----|--5-----------------7-----6-----7----|
A|--5-----------5--5--5-----4-----5----|--5-----------------5-----4-----5----|
D|-------------------------------------|--5----------------------------------|

  GTR I
e|-------------------------------------|-------------------------------------|
B|-------------------------------------|-------------------------------------|
G|--9-----7--7--7--7--7-----6-----7----|--9-----9--9--9--9-11----12----14----|
D|--x-----x--x--x--x--x-----x-----x----|--x-----x--x--x--x--x-----x-----x----|
A|--7-----5--5--5--5--5-----4-----5----|--7-----7--7--7--7--9----10----12----|
D|-------------------------------------|-------------------------------------|
 |
 |GTR II
e|-------------------------------------|-------------------------------------|
B|-------------------------------------|-------------------------------------|
G|-------------------------------------|-------------------------------------|
D|--9--------9--9-----9--------9--9----|--2-----2-----2-----5-----5-----5----|
A|--9--------9--9-----9--------9--9----|--2-----2-----2-----5-----5-----5----|
D|--9--------9--9-----9--------9--9----|--2-----2-----2-----5-----5-----5----|

  GTR I
e|-------------------------------------|-------------------------------------|
B|-------------------------------------|-------------------------------------|
G|--7-----7--7--7--7--7-----6-----7----|--9-----7--7--7--7--7-----6-----7----|
D|--x-----x--x--x--x--x-----x-----x----|--x-----x--x--x--x--x-----x-----x----|
A|--5-----5--5--5--5--5-----4-----5----|--7-----5--5--5--5--5-----4-----5----|
D|-------------------------------------|-------------------------------------|
 |
 |GTR II
e|-------------------------------------|-------------------------------------|
B|-------------------------------------|-------------------------------------|
G|--7-----------7--7--7-----6-----7----|--------------------7-----6-----7----|
D|--7-----------7--7--7-----6-----7----|--5-----------------7-----6-----7----|
A|--5-----------5--5--5-----4-----5----|--5-----------------5-----4-----5----|
D|-------------------------------------|--5----------------------------------|

  GTR I
e|-------------------------------------|-------------------------------------|
B|-------------------------------------|-------------------------------------|
G|--9-----7--7--7--7--7-----6-----7----|--9-----9--9--9--9-11----12----14----|
D|--x-----x--x--x--x--x-----x-----x----|--x-----x--x--x--x--x-----x-----x----|
A|--7-----5--5--5--5--5-----4-----5----|--7-----7--7--7--7--9----10----12----|
D|-------------------------------------|-------------------------------------|
 |
 |GTR II
e|-------------------------------------|-------------------------------------|
B|-------------------------------------|-------------------------------------|
G|-------------------------------------|-------------------------------------|
D|--9--------9--9-----9--------9--9----|--2-----2-----2-----5-----5-----5----|
A|--9--------9--9-----9--------9--9----|--2-----2-----2-----5-----5-----5----|
D|--9--------9--9-----9--------9--9----|--2-----2-----2-----5-----5-----5----|

  GTR I
e|-------------------------------------|-------------------------------------|
B|-------------------------------------|-------------------------------------|
G|-------------------------------------|/14~---------------------------------|
D|-14~--------------/14~---------------|-------------------14~---------------|
A|-------------------------------------|-------------------------------------|
D|-------------------------------------|-------------------------------------|
 |
 |GTR II
e|-------------------------------------|-------------------------------------|
B|-------------------------------------|-------------------------------------|
G|--9-----9--9--9--9--9-----9--9--9--9-|-------------------------------------|
D|--9-----9--9--9--9--9-----9--9--9--9-|--7-----7--7--7--7--7-----7--7--7--7-|
A|--7-----7--7--7--7--7-----7--7--7--7-|--7-----7--7--7--7--7-----7--7--7--7-|
D|-------------------------------------|--7-----7--7--7--7--7-----7--7--7--7-|

  GTR I
e|-------------------------------------|-------------------------------------|
B|-------------------------------------|-------------------------------------|
G|/14~---------------------------------|/16----14----12----14----12----------|
D|-------------------14~---------------|-------------------------------16----|
A|-------------------------------------|-------------------------------------|
D|-------------------------------------|-------------------------------------|
 |
 |GTR II
e|-------------------------------------|-------------------------------------|
B|-------------------------------------|-------------------------------------|
G|-12----12-12-12-12-12----12-12-12-12-|-11----12----14-----7-----9----11----|
D|-12----12-12-12-12-12----12-12-12-12-|-11----12----14-----7-----9----11----|
A|-10----10-10-10-10-10----10-10-10-10-|--9----10----12-----5-----7-----9----|
D|-------------------------------------|-------------------------------------|

  GTR I
e|-------------------------------------|-------------------------------------|
B|-------------------------------------|-------------------------------------|
G|-------------------------------------|/14~---------------------------------|
D|-14~--------------/14~---------------|-------------------14~---------------|
A|-------------------------------------|-------------------------------------|
D|-------------------------------------|-------------------------------------|
 |
 |GTR II
e|-------------------------------------|-------------------------------------|
B|-------------------------------------|-------------------------------------|
G|--9-----9--9--9--9--9-----9--9--9--9-|-------------------------------------|
D|--9-----9--9--9--9--9-----9--9--9--9-|--7-----7--7--7--7--7-----7--7--7--7-|
A|--7-----7--7--7--7--7-----7--7--7--7-|--7-----7--7--7--7--7-----7--7--7--7-|
D|-------------------------------------|--7-----7--7--7--7--7-----7--7--7--7-|

  GTR I
e|-------------------------------------|-------------------------------------|
B|-------------------------------------|-------------------------------------|
G|/14~---------------------------------|/16----14----12----------------------|
D|-------------------14~---------------|------------------/17----16----14----|
A|-------------------------------------|-------------------------------------|
D|-------------------------------------|-------------------------------------|
 |
 |GTR II
e|-------------------------------------|-------------------------------------|
B|-------------------------------------|-------------------------------------|
G|-12----12-12-12-12-12----12-12-12-12-|-11----12----14-----7-----9----11----|
D|-12----12-12-12-12-12----12-12-12-12-|-11----12----14-----7-----9----11----|
A|-10----10-10-10-10-10----10-10-10-10-|--9----10----12-----5-----7-----9----|
D|-------------------------------------|-------------------------------------|

Chorus

  GTR I
e|-------------------------------------|-------------------------------------|
B|-------------------------------------|-------------------------------------|
G|-------------------------------------|--------------------7-----6-----7----|
D|-12~---------------------------------|--5-----------------7-----6-----7----|
A|-------------------------------------|--5-----------------5-----4-----5----|
D|-------------------------------------|--5----------------------------------|
 |
 |GTR II
e|-------------------------------------|-------------------------------------|
B|-------------------------------------|-------------------------------------|
G|--7-----------7--7--7-----6-----7----|--------------------7-----6-----7----|
D|--7-----------7--7--7-----6-----7----|--5-----------------7-----6-----7----|
A|--5-----------5--5--5-----4-----5----|--5-----------------5-----4-----5----|
D|-------------------------------------|--5----------------------------------|

  GTR I,II
e|-------------------------------------|-------------------------------------|
B|-------------------------------------|-------------------------------------|
G|-------------------------------------|-------------------------------------|
D|--9-----------------9----------------|--2-----2-----2-----5-----5-----5----|
A|--9-----------------9----------------|--2-----2-----2-----5-----5-----5----|
D|--9-----------------9----------------|--2-----2-----2-----5-----5-----5----|

  GTR I,II
e|-------------------------------------|-------------------------------------|
B|-------------------------------------|-------------------------------------|
G|--7-----------7--7--7-----6-----7----|--------------------7-----6-----7----|
D|--7-----------7--7--7-----6-----7----|--5-----------------7-----6-----7----|
A|--5-----------5--5--5-----4-----5----|--5-----------------5-----4-----5----|
D|-------------------------------------|--5----------------------------------|

  GTR I,II
e|-------------------------------------|-------------------------------------|
B|-------------------------------------|-------------------------------------|
G|-------------------------------------|-------------------------------------|
D|--9--------9--9-----9--------9--9----|--2-----2-----------5-----5----------|
A|--9--------9--9-----9--------9--9----|--2-----2-----------5-----5----------|
D|--9--------9--9-----9--------9--9----|--2-----2-----------5-----5----------|

  GTR I,II
e|-------------------------------------|-------------------------------------|
B|-------------------------------------|-------------------------------------|
G|--7-----------7--7--7-----6-----7----|--------------------7-----6-----7----|
D|--7-----------7--7--7-----6-----7----|--5-----------------7-----6-----7----|
A|--5-----------5--5--5-----4-----5----|--5-----------------5-----4-----5----|
D|-------------------------------------|--5----------------------------------|

  GTR I,II
e|-------------------------------------|-------------------------------------|
B|-------------------------------------|-------------------------------------|
G|-------------------------------------|-------------------------------------|
D|--9-----------------9----------------|--2-----2-----2-----5-----5-----5----|
A|--9-----------------9----------------|--2-----2-----2-----5-----5-----5----|
D|--9-----------------9----------------|--2-----2-----2-----5-----5-----5----|

  GTR I,II
e|-------------------------------------|-------------------------------------|
B|-------------------------------------|-------------------------------------|
G|--7-----------7--7--7-----6-----7----|--------------------7-----6-----7----|
D|--7-----------7--7--7-----6-----7----|--5-----------------7-----6-----7----|
A|--5-----------5--5--5-----4-----5----|--5-----------------5-----4-----5----|
D|-------------------------------------|--5----------------------------------|

  GTR I,II
e|-------------------------------------|-------------------------------------|
B|-------------------------------------|-------------------------------------|
G|-------------------------------------|-------------------------------------|
D|--9--------9--9-----9--------9--9----|--2-----2-----------5-----5----------|
A|--9--------9--9-----9--------9--9----|--2-----2-----------5-----5----------|
D|--9--------9--9-----9--------9--9----|--2-----2-----------5-----5----------|

Outro

  GTR I,II
e|-------------------------------------|-------------------------------------|
B|-------------------------------------|-------------------------------------|
G|--7-----------7--7--7-----6-----7----|--------------------7-----6-----7----|
D|--7-----------7--7--7-----6-----7----|--5-----------------7-----6-----7----|
A|--5-----------5--5--5-----4-----5----|--5-----------------5-----4-----5----|
D|-------------------------------------|--5----------------------------------|

  GTR I,II
e|-------------------------------------|-------------------------------------|
B|-------------------------------------|-------------------------------------|
G|-------------------------------------|-------------------------------------|
D|--9--------9--9-----9--------9--9----|--2-----2-----------5-----5----------|
A|--9--------9--9-----9--------9--9----|--2-----2-----------5-----5----------|
D|--9--------9--9-----9--------9--9----|--2-----2-----------5-----5----------|

  GTR I,II
e|-------------------------------------|-------------------------------------|
B|-------------------------------------|-------------------------------------|
G|--7-----------7--7--7-----6-----7----|--------------------7-----6-----7----|
D|--7-----------7--7--7-----6-----7----|--5-----------------7-----6-----7----|
A|--5-----------5--5--5-----4-----5----|--5-----------------5-----4-----5----|
D|-------------------------------------|--5----------------------------------|

  GTR I,II
e|-------------------------------------|-------------------------------------|
B|-------------------------------------|-------------------------------------|
G|-------------------------------------|-------------------------------------|
D|--9--------9--9-----9--------9--9----|--2-----2-----x-----5----------------|
A|--9--------9--9-----9--------9--9----|--2-----2-----x-----5----------------|
D|--9--------9--9-----9--------9--9----|--2-----2-----x-----5----------------|


| b  bend
| r  release bend
|PH. pinch harmonic
|fbk feedback
| .  palm-mute
| /  slide up
| \  slide down
| h  hammer-on
| p  pull-off
| ~  vibrato
| +  harmonic
| x  Mute note
===============================================================================

comments
We did not receive enough feedback on this tab! Please rate:
print report bad tab
1 2 3 4 5
2 comments total.
0 reply
Teen Spirit wrote on March 22 2010, 12:23 pm

great tab.

good song too, from back when they were GOOD.....

0 reply
Chickenboot wrote on March 22 2010, 06:06 pm

I like all of their stuff to be honest, I've tabbed a few other songs by them too.

I want to post or [tab]
guest
You may want to rate the tab now too:
select rating
Please do not post tabs as comments. Select "correction" instead!