Oops, an error
Loading. Please wait.

Leathers Tab

5,923 views 30 this week
1 commentread comment
1 2 3 4 5
excellent!
x 3
Autoscroll
+/-
esc
set tempo
stop
Contributor
Hey! There's an official Ultimate Guitar app which is ideal
for learning songs when you're away from computer. Get the app
WARNING: You are trying to view
                                    content from Ultimate-Guitar.com
                                    in an unauthorized application,
                                    which is prohibited.

                                    Please use an official Ultimate
                                    Guitar Tabs application for iPhone,
                                    iPad or Android to access legitimate
                                    chords, guitar, bass, and drum tabs
                                    from Ultimate-Guitar.com database.

                                    Type "ultimate guitar tabs" in Apple
                                    App Store's or Android Market's
                                    search to find the application.
-------------------------------------------------------------------------------
                                                     LEATHERS - Deftones
-------------------------------------------------------------------------------

THIS TAB IS TO BE USED AS A GUIDELINE AND IS IN NO WAY 100% ACCURATE

Tabbed by: desertscoldmoon
Tuning: E-B-E-A-D-G-B-E

This is a bit of a mix of Stef and Chino's parts.

E|------------------------------------------------------------------|
B|------------------------------------------------------------------|
G|-14---14b15---15br14---14b15---15-15br14---14b15---15br14---14b15-|
D|------------------------------------------------------------------|
A|------------------------------------------------------------------|
E|------------------------------------------------------------------|
B|------------------------------------------------------------------|
E|------------------------------------------------------------------|


E|-------------------------------------------------|
B|-------------------------------------------------|
G|-------------------------------------------------|
D|----------7-----------7-----------7------------7-|
A|----------x-----------x-----------x------------x-| x2
E|-0-0-0-0--5--0-0-0-0--5--0-0-0-0--5--0-0--0-0--5-|
B|-0-0-0-0-----0-0-0-0-----0-0-0-0-----0-0--0-0----|
E|-0-0-0-0-----0-0-0-0-----0-0-0-0-----0-0--0-0----|
   . . . .     . . . .     . . . .     . .  . .

E|--------------|
B|--------------|
G|--------------|
D|-7--7---------|
A|-x--x---------| x1
E|-5--5---------|
B|--------------|
E|-------5/15\5-|


E|--------------------------------------------------|
B|--------------------------------------------------|
G|-12-12/14-14-14-14-14/15--------------------------|
D|-x--x--x--x--x--x--x--x---8--8-8-8--8-8-8---------|
A|-10-10/12-12-12-12-12/13--8--8-8-8--8-8-8---------|
E|--------------------------6--6-6-6--6-6-6---------|
B|--------------------------6--6-6-6--6-6-6---------|
E|--------------------------6--6-6-6--6-6-6---------|
                                                    | x2
E|--------------------------------------------------|
B|--------------------------------------------------|
G|--------------------------------------------------|
D|-12--12-12-12--12-12-12----12--12-12-12--12-12-12-|
A|-12--12-12-12--12-12-12----12--12-12-12--12-12-12-|
E|-10--10-10-10--10-10-10----10--10-10-10--10-10-10-|
B|-10--10-10-10--10-10-10----10--10-10-10--10-10-10-|
E|-10--10-10-10--10-10-10----10--10-10-10--10-10-10-|


E|-------------------------------------------------|
B|-------------------------------------------------|
G|-------------------------------------------------|
D|----------7b----------7-----------7b-----------7-|
A|----------x-----------x-----------x------------x-| x2
E|-0-0-0-0--5b-0-0-0-0--5--0-0-0-0--5b-0-0--0-0--5-|
B|-0-0-0-0-----0-0-0-0-----0-0-0-0-----0-0--0-0----|
E|-0-0-0-0-----0-0-0-0-----0-0-0-0-----0-0--0-0----|
   . . . .     . . . .     . . . .     . .  . .

E|--------------|
B|--------------|
G|--------------|
D|-7--7---------|
A|-x--x---------| x1
E|-5--5---------|
B|--------------|
E|-------5/15\5-|


E|--------------------------------------------------|
B|--------------------------------------------------|
G|-12-12/14-14-14-14-14/15--------------------------|
D|-x--x--x--x--x--x--x--x---8--8-8-8--8-8-8---------|
A|-10-10/12-12-12-12-12/13--8--8-8-8--8-8-8---------|
E|--------------------------6--6-6-6--6-6-6---------|
B|--------------------------6--6-6-6--6-6-6---------|
E|--------------------------6--6-6-6--6-6-6---------|
                                                    | x1
E|--------------------------------------------------|
B|--------------------------------------------------|
G|--------------------------------------------------|
D|-12--12-12-12--12-12-12----12--12-12-12--12-12-12-|
A|-12--12-12-12--12-12-12----12--12-12-12--12-12-12-|
E|-10--10-10-10--10-10-10----10--10-10-10--10-10-10-|
B|-10--10-10-10--10-10-10----10--10-10-10--10-10-10-|
E|-10--10-10-10--10-10-10----10--10-10-10--10-10-10-|


E|-------------------------------------------------|
B|-------------------------------------------------|
G|-12-12/14-14-14-14-14/15-------------------------|
D|-x--x--x--x--x--x--x--x---8-8-8-8--8-8-8-8-8-8-8-|
A|-10-10/12-12-12-12-12/13--8-8-8-8--8-8-8-8-8-8-8-|
E|--------------------------6-6-6-6--6-6-6-6-6-6-6-|
B|--------------------------6-6-6-6--6-6-6-6-6-6-6-|
E|--------------------------6-6-6-6--6-6-6-6-6-6-6-|
                            . . . .    .     . .
                        
E|-------------------------------------------------------------|
B|-------------------------------------------------------------|
G|-------------------------------------------------------------|
D|-12--12-12-12--12-12-12----12-12-12-12--12-12-12-12-12-12-12-|
A|-12--12-12-12--12-12-12----12-12-12-12--12-12-12-12-12-12-12-|
E|-10--10-10-10--10-10-10----10-10-10-10--10-10-10-10-10-10-10-|
B|-10--10-10-10--10-10-10----10-10-10-10--10-10-10-10-10-10-10-|
E|-10--10-10-10--10-10-10----10-10-10-10--10-10-10-10-10-10-10-|
                             .  .  .  .      .        .  .    

E|-----------------------------------------|
B|-----------------------------------------|
G|-----------------------------------------|
D|-8--8-8-8--8-8-8--8-8-8-8--8-8-8-8-8-8-8-|
A|-8--8-8-8--8-8-8--8-8-8-8--8-8-8-8-8-8-8-|
E|-6--6-6-6--6-6-6--6-6-6-6--6-6-6-6-6-6-6-|
B|-6--6-6-6--6-6-6--6-6-6-6--6-6-6-6-6-6-6-|
E|-6--6-6-6--6-6-6--6-6-6-6--6-6-6-6-6-6-6-|
                    . . . .    .     . .

E|---------------------------|
B|---------------------------|
G|---------------------------|
D|-12--12-12-12--12-12-12----|
A|-12--12-12-12--12-12-12----|
E|-10--10-10-10--10-10-10----|
B|-10--10-10-10--10-10-10----|
E|-10--10-10-10--10-10-10----|   


E|--------------------------------------------------|
B|--------------------------------------------------|
G|--------------------------------------------------|
D|12-12-12-12--12-12-12-12-12-12-12-12-12--12-12-12-|
A|12-12-12-12--12-12-12-12-12-12-12-12-12--12-12-12-|
E|10-10-10-10--10-10-10-10-10-10-10-10-10--10-10-10-|
B|10-10-10-10--10-10-10-10-10-10-10-10-10--10-10-10-|
E|10-10-10-10--10-10-10-10-10-10-10-10-10--10-10-10-|
  .  .  .  .      .  .  .  .  .  .  .      .  .  .

E|-------------------------------------------------|
B|-------------------------------------------------|
G|-------------------------------------------------|
D|-------------------------------------------------|
A|-------------------------------------------------|
E|-------------------------------------------------|
B|-------------------------------------------------|
E|-10h11-11-11--11-11--10--10-10-10-10-10-10-10----|
                                                   | x2
E|-------------------------------------------------|
B|-------------------------------------------------|
G|-------------------------------------------------|
D|-------------------------------------------------|
A|-------------------------------------------------|
E|-------------------------------------------------|
B|-------------------------------------------------|
E|-10-10-10-10-10-10-10-10-10-10-10-10-10-10-10-10-|


E|------------------------------------------------------------------|
B|------------------------------------------------------------------|
G|------------------------------------------------------------------|
D|-13--13-13-13-13--------------------------------------------------|
A|-x---x--x--x--x---------------------------------------------------| x1
E|-11--11-11-11-11--------------------------------------------------|
B|------------------------------------------------------------------|
E|------------------10-10-10-10-10-10-10-10-10-10-10-10-10-10-10-10-|


E|-----------------------------------------|
B|-----------------------------------------|
G|-----------------------------------------|
D|-13--13-13-13-13-------------------------|
A|-x---x--x--x--x--------------------------| x3
E|-11--11-11-11-11-------------------------|
B|-----------------------------------------|
E|------------------10--10-10-10-10-10-10--|


E|----|
B|----|
G|----|
D|-13-|
A|-x--| x a lot
E|-11-|
B|----|
E|----|


E|-----------------------------------------------------|
B|-----------------------------------------------------|
G|-12-12/14-14-14-14-14/15\7-7--7-7-7-7br7--7-7-7-7br7-|
D|-x--x--x--x--x--x--x--x--x-x--x-x-x-x-----x-x-x-x----|
A|-10-10/12-12-12-12-12/13\5-5--5-5-5-5br5--5-5-5-5br5-| x1
E|-----------------------------------------------------|
B|-----------------------------------------------------|
E|-----------------------------------------------------|


E|---------------------------|
B|---------------------------|
G|---------------------------|
D|-12--12-12-12--12-12-12----|
A|-12--12-12-12--12-12-12----|
E|-10--10-10-10--10-10-10----|
B|-10--10-10-10--10-10-10----|
E|-10--10-10-10--10-10-10----|   


E|--------------------------------------------------|
B|--------------------------------------------------|
G|--------------------------------------------------|
D|12-12-12-12--12-12-12-12-12-12-12-12-12--12-12-12-|
A|12-12-12-12--12-12-12-12-12-12-12-12-12--12-12-12-|
E|10-10-10-10--10-10-10-10-10-10-10-10-10--10-10-10-|
B|10-10-10-10--10-10-10-10-10-10-10-10-10--10-10-10-|
E|10-10-10-10--10-10-10-10-10-10-10-10-10--10-10-10-|
  .  .  .  .      .  .  .  .  .  .  .      .  .  .


E|-----------------------------------------|
B|-----------------------------------------|
G|-----------------------------------------|
D|-8--8-8-8--8-8-8--8-8-8-8--8-8-8-8-8-8-8-|
A|-8--8-8-8--8-8-8--8-8-8-8--8-8-8-8-8-8-8-|
E|-6--6-6-6--6-6-6--6-6-6-6--6-6-6-6-6-6-6-|
B|-6--6-6-6--6-6-6--6-6-6-6--6-6-6-6-6-6-6-|
E|-6--6-6-6--6-6-6--6-6-6-6--6-6-6-6-6-6-6-|
                    . . . .    .     . .

E|-------------------------------------------------------------|
B|-------------------------------------------------------------|
G|-------------------------------------------------------------|
D|-12--12-12-12--12-12-12----12-12-12-12--12-12-12-12-12-12-12-|
A|-12--12-12-12--12-12-12----12-12-12-12--12-12-12-12-12-12-12-|
E|-10--10-10-10--10-10-10----10-10-10-10--10-10-10-10-10-10-10-|
B|-10--10-10-10--10-10-10----10-10-10-10--10-10-10-10-10-10-10-|
E|-10--10-10-10--10-10-10----10-10-10-10--10-10-10-10-10-10-10-|
                             .  .  .  .      .        .  .    

E|-----------------------------------------|
B|-----------------------------------------|
G|-----------------------------------------|
D|-8--8-8-8--8-8-8--8-8-8-8--8-8-8-8-8-8-8-|
A|-8--8-8-8--8-8-8--8-8-8-8--8-8-8-8-8-8-8-|
E|-6--6-6-6--6-6-6--6-6-6-6--6-6-6-6-6-6-6-|
B|-6--6-6-6--6-6-6--6-6-6-6--6-6-6-6-6-6-6-|
E|-6--6-6-6--6-6-6--6-6-6-6--6-6-6-6-6-6-6-|
                    . . . .    .     . .

E|-------------------------------------------------------------|
B|-------------------------------------------------------------|
G|-------------------------------------------------------------|
D|-12--12-12-12--12-12-12----12-12-12-12--12-12-12-12-12-12-12-|
A|-12--12-12-12--12-12-12----12-12-12-12--12-12-12-12-12-12-12-|
E|-10--10-10-10--10-10-10----10-10-10-10--10-10-10-10-10-10-10-|
B|-10--10-10-10--10-10-10----10-10-10-10--10-10-10-10-10-10-10-|
E|-10--10-10-10--10-10-10----10-10-10-10--10-10-10-10-10-10-10-|
                             .  .  .  .      .        .  .    

E|-----------------------------------------|
B|-----------------------------------------|
G|-----------------------------------------|
D|-8--8-8-8--8-8-8--8-8-8-8--8-8-8-8-8-8-8-|
A|-8--8-8-8--8-8-8--8-8-8-8--8-8-8-8-8-8-8-|
E|-6--6-6-6--6-6-6--6-6-6-6--6-6-6-6-6-6-6-|
B|-6--6-6-6--6-6-6--6-6-6-6--6-6-6-6-6-6-6-|
E|-6--6-6-6--6-6-6--6-6-6-6--6-6-6-6-6-6-6-|
                    . . . .    .     . .

E|---------------------------|
B|---------------------------|
G|---------------------------|
D|-12--12-12-12--12-12-12----|
A|-12--12-12-12--12-12-12----|
E|-10--10-10-10--10-10-10----|
B|-10--10-10-10--10-10-10----|
E|-10--10-10-10--10-10-10----|   


E|--------------------------------------------------|
B|--------------------------------------------------|
G|--------------------------------------------------|
D|12-12-12-12--12-12-12-12-12-12-12-12-12--12-12-12-|
A|12-12-12-12--12-12-12-12-12-12-12-12-12--12-12-12-|
E|10-10-10-10--10-10-10-10-10-10-10-10-10--10-10-10-|
B|10-10-10-10--10-10-10-10-10-10-10-10-10--10-10-10-|
E|10-10-10-10--10-10-10-10-10-10-10-10-10--10-10-10-|
  .  .  .  .      .  .  .  .  .  .  .      .  .  .

E|-------------------------------------------------|
B|-------------------------------------------------|
G|-------------------------------------------------|
D|-------------------------------------------------|
A|-------------------------------------------------| x4
E|-------------------------------------------------|
B|-------------------------------------------------|
E|-10h11-11-11--11-11--10--10-10-10-10-10-10-10----|


E|-----------------------------------------|
B|-----------------------------------------|
G|-----------------------------------------|
D|-13--13-13-13br13------------------------|
A|-x---x--x--x---x-------------------------| x4
E|-11--11-11-11br11------------------------|
B|-----------------------------------------|
E|------------------10--10-10-10-10-10-10--|


E|----------------------------------------|
B|----------------------------------------|
G|-12--12-12-12-12------------------------|
D|-x---x--x--x--x-------------------------|
A|-10--10-10-10-10------------------------| x2
E|----------------------------------------|
B|----------------------------------------|
E|------------------10--10-10-10-10-10-10-|
comments
We did not receive enough feedback on this tab! Please rate:
print report bad tab
1 2 3 4 5
1 comment total.
0 reply
Metal_Maniacal wrote on March 27 2013, 06:14 pm

Great job, this is a solid tab. Thanks to you it's the first song for 8 string that I've learned!

I want to post or [tab]
guest
You may want to rate the tab now too:
select rating
Please do not post tabs as comments. Select "correction" instead!