Oops, an error
Loading. Please wait.

White Pony Tab

ver1
ver1

Album

More versions @911Tabs.com
26,707 views 47 this week
1 commentread comment
1 2 3 4 5
accurate
x 5
add to favorites launch autoscroll
font size
0
reset
Autoscroll
+/-
esc
set tempo
stop
Contributor
WARNING: You are trying to view
                                    content from Ultimate-Guitar.com
                                    in an unauthorized application,
                                    which is prohibited.

                                    Please use an official Ultimate
                                    Guitar Tabs application for iPhone,
                                    iPad or Android to access legitimate
                                    chords, guitar, bass, and drum tabs
                                    from Ultimate-Guitar.com database.

                                    Type "ultimate guitar tabs" in Apple
                                    App Store's or Android Market's
                                    search to find the application.
These aren't my tabs, i just like to have the whole album together when im trying to play along
with the cd so i put these other persons' tabs together. A great album. The whole cd is tuned
to Drop C (C G C F A D).

1. Back to School
2. Feiticeira
3. Digital Bath
4. Elite
5. Rx Queen
6. Street Carp
7. Teenager
8. Knife Party
9. Korea
10. Passenger
11. Change (in the house of flies)
12. Pink Maggit

*track from limited edition version* - Boy's Republic
_____________________________________________________________________________
Back To School Tab by Deftones, www.Ultimate-Guitar.Com

Back 2 School
Artist: Deftones
Tabbed by Ratmer (Ratmer@gmx.at)

Dropped-D tuning transposed one whole step (low to high: CGCFAD)

Pre-Intro

D|--13-13-13-13-13-13-13-13-13---13-13-13-13-13-13-13-13-13-|
A|---x--x--x--x--x--x--x--x--x---10-10-10-10-10-10-10-10-10-|
F|--10-10-10-10-10-10-10-10-10---10-10-10-10-10-10-10-10-10-|
C|-----------------------------------x----------------------|
G|----------------------------------10----------------------|
C|----------------------------------------------------------|

D|--13-13-13-13-13-13-13-13-13---13-13-13-13-13-13-13-13-13-|
A|---x--x--x--x--x--x--x--x--x---10-10-10-10-10-10-10-10-10-|
F|--10-10-10-10-10-10-10-10-10---10-10-10-10-10-10-10-10-10-|
C|--------------------------------x-------------------------|
G|-------------------------------10-------------------------|
C|----------------------------------------------------------|

Intro / Interlude   w/heavy distortion          let it ring!

D|----------------------------------------------------------|
A|----------------------------------------------------------|
F|----------10-10-10-10-----------(10)-(10)-(10)-(10)-------|
C|--8---0----0--0--0--0---8---0----(0)--(0)--(0)--(0)-------|
G|--8---0-----------------8---0-----------------------------|
C|--8---0-----------------8---0-----------------------------|

Verse   w/distortion

D|----------------------------------------------------------|
A|----------------------------------------------------------|
F|------------------------10-10-10--------------------------|
C|-------------------------0--0--0--------------------------|
G|----------------------------------------------------------|
C|--5-5---4-4---8-8--0-0------------------------------------|

Chorus w/heavy distortion

D|----------------------------------------------------------|
A|----------------------------------------------------------|
F|--10-10-10-10--10-10-10-10--10-10-10-10--10-10-10-10------|
C|---8--8--8--8---8--8--8--8---8--8--8--8---8--8--8--8------|
G|---8--8--8--8---8--8--8--8---8--8--8--8---8--8--8--8------|
C|---8--8--8--8---8--8--8--8---8--8--8--8---8--8--8--8------|

D|----------------------------------------------------------|
A|----------------------------------------------------------|
F|----------------------------------------------------------|
C|---0-0-0-0--0-0-0-0--0-0-0-0--0-0-0-0---5-5-5-5--5-5-5-5--|
G|---0-0-0-0--0-0-0-0--0-0-0-0--0-0-0-0---5-5-5-5--5-5-5-5--|
C|---0-0-0-0--0-0-0-0--0-0-0-0--0-0-0-0---5-5-5-5--5-5-5-5--|


D|----------------------------------------------------------|
A|----------------------------------------------------------|
F|----------------------------------------------------------|
C|---5-5-5-5--5-5-5-5--5-4-4-4--4-4-4-4--4-4-4-4--4-4-4-4---|
G|---5-5-5-5--5-5-5-5--5-4-4-4--4-4-4-4--4-4-4-4--4-4-4-4---|
C|---5-5-5-5--5-5-5-5--5-4-4-4--4-4-4-4--4-4-4-4--4-4-4-4---|

2nd Track (Play during final chorus) (Use a sampler, if possible)

D|----------------------------------------------------------|
A|----------------------------------------------------------|
F|---14-14-14/15-15-15/17-17-17-17--------------------------|
C|----x--x--x--x--x--x--x--x--x--x--------------------------|
G|---12-12-12/13-13-13/15-15-15-15--------------------------|
C|----------------------------------------------------------|

End:

D|----------------------------------------------------------|
A|----------------------------------------------------------|
F|-----------10-10-10-10------------------------------------|
C|---8---0----0--0--0--0------------------------------------|
G|---8---0--------------------------------------------------|
C|---8---0--------------------------------------------------|
                                                   Fade out...

/ = Slide

Order:

Pre-Intro 1x
Intro     4x
Verse     4x
Chorus    2x
Verse     4x
Chorus    4x + 2nd Track (simultaneous)
Interlude 2x
Chorus    6x + 2nd Track (simultaneous)
Interlude 1x
End    1x

Listen to the CD to get the rhythm. It isn t that difficult.
If you have questions or suggestions, just e-mail me.
And the funk will never die...

_____________________________________________________________________________
Feiticeira Tab by Deftones, www.Ultimate-Guitar.Com

Feiticeira-Deftones
White Pony

Drop C
C G C F A D

intro changes from 4/4 to 3/4

Fig. 1

d-7-------7--------------------------------7------------------|
a-x-7-7-7-x-7-7-7-7-7-7-77-----------6-7-7-x-7-7-77-----------|
f-4-------4-x-x-x-x-x-x-xx-6-7-6-7---3-x-x-4-x-x-xx-6-7-6-7---|
c---4-4-4---4-4-4-4-4-4-44---0---0---3-4-4---4-4-44---0---0---|
g--------------------------4-0-4-0-0----------------4-0-4-0---|
c--------------------------4-0-4-0-0----------------4-0-4-0---|

d---------7------------------------7--------------------------|
a---6-7-7-x-7-7-77-----------6-7-7-x-7-7-77-------------------|
f---3-x-x-4-x-x-xx-6-7-6-7---3-x-x-4-x-x-xx-6-7-6-7-----------|
c---3-4-4---4-4-44---0---0---3-4-4---4-4-44---0---0-----------|
g-0----------------4-0-4-0-0----------------4-0-4-0-----------|
c-0----------------4-0-4-0-0----------------4-0-4-0-----------|

d---------7------------------------7--------------------------|
a---6-7-7-x-7-7-77-----------6-7-7-x-7-7-77-------------------|
f---3-x-x-4-x-x-xx-6-7-6-7---3-x-x-4-x-x-xx-6-7-6-7-----------|
c---3-4-4---4-4-44---0---0---3-4-4---4-4-44---0---0-----------|
g-0----------------4-0-4-0-0----------------4-0-4-0-----------|
c-0----------------4-0-4-0-0----------------4-0-4-0-----------|

gtr 2. doubled

d-------------------------------------------------------------|
a-------------------------------------------------------------|
f-------------------------------------------------------------|
c----------------------------------------88-8---4-------------|
g----------------------------------------88-8-0-4-0-----------|
c----------------------------------------88-8-0-4-0-----------|

Verse 1 ...Fuck, i'm drunk...

Fig 2.

d-------------------------------------------------------------|
a-------------------------------------------------------------|
f-------------------------------------------------------------|
c-0-11-11-11-11-11-11-11-11-11-11-11--------------------------|
g-0-11-11-11-11-11-11-11-11-11-11-11-8-0-4-0------------------|
c-0-11-11-11-11-11-11-11-11-11-11-11-8-0-4-0------------------|

Bridge:

d-------------------------------------------------------------|
a-------------------------------------------------------------|
f-------------------------------------------------------------|
c----------------------------------------------1010-----------|
g-8---8b-8----8b-8---8br-8----8b-8--8b-8----8b-1010-10-0-4-0--|
c----------------------------------------------1010-10-0-4-0--|

...soon i'll let you go....

d-------------------------------------------------------------|
a-10-10-10-10-10-10-10-10-10-15-15-15-15-15-15-19-19-19-19-19-|
f-x--x--x--x--x--x--x--x--x--x--x--x--x--x--x--x--x--x--x--x--|
c-7--7--7--7--7--7--7--7--7--12-12-12-12-12-12-16-16-16-16-16-|
g-------------------------------------------------------------|
c-------------------------------------------------------------|

Bridge:

Fig 3.

d-------------------------------------------------------------|
a-------------------------------------------------------------|
f-10-10-10-10-10-10-10-10-10-10-10-10-10b-10------------------|
c-------------------------------------------------------------|
g--8--8--8--8--8--8--8--8--8--8--8--8--8b--8------------------|
c-------------------------------------------------------------|

Outro:

d-0-0-0-0-0-0-0-0-0-0-0-0-0-0---0-0-0-0-0-0-0-0-0-0-0-0-0-0-0-|
a-0-0-0-0-0-0-0-0-0-0-0-0-0-0---0-0-0-0-0-0-0-0-0-0-0-0-0-0-0-|
f1010101010101010101010101010---6-6-6-6-6-6-6-6-6-6-6-6-6-6-6-|
c1010101010101010101010101010---6-6-6-6-6-6-6-6-6-6-6-6-6-6-6-|
g-8-8-8-8-8-8-8-8-8-8-8-8-8-8---4-4-4-4-4-4-4-4-4-4-4-4-4-4-4-|
c-------------------------------------------------------------|

let ring

d-------------------------------------------------------------|
a-------------------------------------------------------------|
f-------------------------------------------------------------|
c-3-----------------------------------------------------------|
g-5-----------------------------------------------------------|
c-0-----------------------------------------------------------|

That's all

trevor jones
timmy91199@yahoo.ca
_____________________________________________________________________________
Digital Bath

Tabbed by:nick buchwald
Email:nckyhim462@yahoo.com

Tuning:drop D then full step down i just play it in drop D - CGCFAD or DADGBE.
my second tab

play through verses and chorus
e|---------------------------------------------------------------------------|
B|---------------------------------------------------------------------------|
G|------------------6--------------------------------------------------------|
D|--7---7---7---7---7--------------------------------------------------------|
A|--4---0---4---0---4--------------------------------------------------------|
D|--4---0---4---0---4--------------------------------------------------------|


mid verse
e|---------------------------------------------------------------------------|
B|---------------------------------------------------------------------------|
G|--9-9-9---12-12---15---14--------------------------------------------------|
D|--x-x-x---x--x----x----x---------------------------------------------------|
A|--7-7-7---10-10---13---12--------------------------------------------------|
D|---------------------------------------------------------------------------|


end of verse
e|---------------------------------------------------------------------------|
B|---------------------------------------------------------------------------|
G|---------------------------------------------------------------------------|
D|----4--4b-4-2-0------------------------------------------------------------|
A|----4----------------------------------------------------------------------|
D|--2------------------------------------------------------------------------|


| b  bend
| x  Mute note

=============================================================================
_____________________________________________________________________________
Elite Tab by Deftones, www.Ultimate-Guitar.Com

Elite-Deftones
White Pony

Drop C
C G C F A D

Fig 1.    When you're ripe.....

x4
d----------------------------------------------------------------|
a----------------------------------------------------------------|
f----------------------------------------------------------------|
c-0-2-0-2-3-2-0-2-0-2-0-2-3-2-0-2-0-2-0-2-3-2-0-2-0-3--3-0-8--8--|
g-0-2-0-2-3-2-0-2-0-2-0-2-3-2-0-2-0-2-0-2-3-2-0-2-0-3--3-0-8--8--|
c-0-2-0-2-3-2-0-2-0-2-0-2-3-2-0-2-0-2-0-2-3-2-0-2-0-3--3-0-8--8--|

d---------0---------------0---------------0---------------0------|
a---------0---------------0---------------0---------------0------|
f---------0---------------0---------------0---------------0------|
c-0-2-0-2-3-------0-2-0-2-3-------0-2-0-2-3-------0-2-0-2-3------|
g-0-2-0-2-3-------0-2-0-2-3-------0-2-0-2-3-------0-2-0-2-3------|
c-0-2-0-2-3-------0-2-0-2-3-------0-2-0-2-3-------0-2-0-2-3------|

Verse 1
Fig 2.

d----------------------------------------------------------------|
a----------------------------------------------------------------|
f----------------------------------------------------------------|
c----------------------------------------------------------------|
g---------3---------------3---------------3----------------1---1-|
c-0-2-0-2---2-0-2-0-2-0-2---2-0-2-0-2-0-2---2-0-2-0-3--3-0-------|

d----------------------------------------------------------------|
a----------------------------------------------------------------|
f----------------------------------------------------------------|
c----------------------------------------------------------------|
g---------3---------------3---------------3----------------------|
c-0-2-0-2---2-0-2-0-2-0-2---2-0-2-0-2-0-2---2-0-2-0-3----0-2-----|

Bridge   ...you're pregnant...

Fig 3.


d---------------------------------0------------0-----------------|
a---------------------------------0------------0-----------------|
f---------------------------------0------------0-----------------|
c-5--5--5--5---5-5-5-5----0-2-0-2-3----0-2-0-2-3-----------------|
g-5--5--5--5---5-5-5-5----0-2-0-2-3----0-2-0-2-3-----------------|
c-5--5--5--5---5-5-5-5----0-2-0-2-3----0-2-0-2-3-----------------|

Interlude:

d-----------------------------------------------------------------|
a-----------------------------------------------------------------|
f-----------------------------------------------------------------|
c-----------------------------------------------------------------|
g---------3---------------3---------------3---------------3-------|
c-0-2-0-2---2-0-2-0-2-0-2---2-0-2-0-2-0-2---2-0-2-0-2-0-2---2-0-2-|

Outro:

d----------------------------------------------------------------|
a----------------------------------------------------------------|
f----------------------------------------------------------------|
c---------5---------------5---------------5----------------------|
g---------3---------------3---------------3------------------13--|
c-0-2-0-2---2-0-2-0-2-0-2---2-0-2-0-2-0-2---2-0-2-0-2-0-2----13--|

d----------------------------------------------------------------|
a----------------------------------------------------------------|
f----------------------------------------------------------------|
c---------5---------------5---------------5----------------------|
g---------3---------------3---------------3---------------13-13--|
c-0-2-0-2---2-0-2-0-2-0-2---2-0-2-0-2-0-2---2-0-2-0-2-0-2-13-13--|

That's All

trevor jones
timmy91199@yahoo.ca
_________________________________________________________________
Rx Queen Tab by Deftones, www.Ultimate-Guitar.Com

Band: Deftones
Song: RX Queen
Album: White Pony
tabbed by left_zero@yahoo.com

Tunning: Tune one step down and then tune the 6th string another whole
step (C,G,C,F,A,D)

Intro: Drums and maybe some harmonics

Verse:
D|-----------------------|
A|-----------------------|
F|-----------------------|
C|-----------------------|  4x
G|-----------------------|
C|--0--2--2--/9--3:------|

Chorus:
D|---------------------------------------|
A|---------------------------------------|
F|---------------------------------------|
C|--0--2--2-2-2-2-2-2--0--5--5-5-5-5-5-5-|  2x
G|--0--2--2-2-2-2-2-2--0--5--5-5-5-5-5-5-|
C|--0--2--2-2-2-2-2-2--0--5--5-5-5-5-5-5-|

Play the Verse Riff 4x
and then the Chorus Riff 4x

Bridge:
D|--------------------------------|
A|--------------------------------|
F|--------------------------------|
C|--3-3--3-3-3-3-3-3-3-3--3-3-3-3-|  4x
G|--3-3--3-3-3-3-3-3-3-3--3-3-3-3-|
C|--3-3--3-3-3-3-3-3-3-3--3-3-3-3-|

Play the Verse Riff 4x,
the Chorus Riff 4x,
the Bridge 4x
and the Verse Riff 4x

then, they play the harmonics again (I THINK)
and this:
D|-------------------------------------------------|
A|-13-13-13-13-13-13-13-13-12-12-12-12-12-12-12-12-|
F|-------------------------------------------------|  very fast
C|-------------------------------------------------|  'til fade out
G|-------------------------------------------------|
C|-------------------------------------------------|
I'm not sure if they play the riff above or if it's some effect
___________________________________________________________________
Street Carp Tab by Deftones, www.Ultimate-Guitar.Com

Deftones
Street Carp
Tabbed by: KoRny Freak

tuning= CGCFAD
intro
D--------------------------|
A--------------------------|
F--44444444-4/8888888\-----|
C---xxxxxx-----xxxxx-------|
G--22222222-2/6666666\-----|
C--------------------------|

verse
D--------------------------------------------------|
A--------------------------------------------------|
F----------------------------------444444444/8888--|
C--6-7-6-0-6-9-6-0-6-7-6-0-6-9-6-0--xxxxxxx---xx---|
G--6-7-6-0-6-9-6-0-6-7-6-0-6-9-6-0-222222222/6666--|
C--6-7-6-0-6-9-6-0-6-7-6-0-6-9-6-0-----------------|

chorus
D----------------------------------------------------------|
A----------------------------------------------------------|
F--8-8-8-8-8-8-8-8-8-8-8-8--9--9----4-4-4-4-4-4-4-4-4-4-4--|
C--6-6-6-6-6-6-6-6-6-6-6-6--9--9--2-2-2-2-2-2-2-2-2-2-2-2--|
G--6-6-6-6-6-6-6-6-6-6-6-6--7--7--2-2-2-2-2-2-2-2-2-2-2-2--|
C--6-6-6-6-6-6-6-6-6-6-6-6--7--7--2-2-2-2-2-2-2-2-2-2-2-2--|

3rd and 4rth verse
D----------------------------------|
A----------------------------------|
F----------------------------------|
C-6-7-6-0-6-9-6-0-6-7-6-0-6-9-6-0--|
G-6-7-6-0-6-9-6-0-6-7-6-0-6-9-6-0--|
C-6-7-6-0-6-9-6-0-6-7-6-0-6-9-6-0--|

________________________________________________________________
Teenager Tab by Deftones, www.Ultimate-Guitar.Com

tab by phil c.
I like the screaming in the background sound.
Drop D (transposed to C) |c|g|c|f|a|d|.
(you can play the 6's as 1 on the fourth string for the little extra sound.)

intro = x?
(-------------------------------------------------------*|
(--------------------------------------------------------|
(------------(1)---------------(1)---------------(1)-----|
(-------4-----6-----------4-----6-----------4-----6------|
(----2-----------------2-----------------2---------------|
(-2-----------------2-----------------2-----------------*|

guitar one
chorus = x?
(---------------------------------*|
(----------------------------------|
(----------------------------------|
(-------4-----6-----------4-----6--|
(----4-----------------2-----------|
(-2-----------------2-------------*|


guitar 2 (acoustic finger pick)
chorus = x?
(---------------------------------*|
(----------------------------------|
(----------------------------------|
(-------4-----6-----------4-----0--|
(----4-----------------2-----------|
(-2-----------------0-------------*|
____________________________________________________________________________
Knife Prty Tab by Deftones, www.Ultimate-Guitar.Com

Knife Prty-Deftones
White Pony

Drop C
C G C F A D

Fig 1.

d-----------------------------------------------------------------|
a-5--5-5-5-5--5-5-5-5-5-5--5-5-5--5-5-5-5--5-5-5--5--5---5-5-5----|
f-5--5-5-5-5--5-5-5-5-5-5--5-5-5--5-5-5-5--5-5-5--5--5---5-5-5----|
c-3--3-3-3-3--3-3-3-3-3-3--3-3-3--3-3-3-3--3-3-3--3--3---3-3-3----|
g-3--3-3-3-3--3-3-3-3-3-3--3-3-3--3-3-3-3--3-3-3--3--3---3-3-3----|
c-3--3-3-3-3--3-3-3-3-3-3--3-3-3--3-3-3-3--3-3-3--3--3---3-3-3----|

d-----------------------------------------------------------------|
a-----------------------------------------------------------------|
f-9--9-9-9-9--9-9-9-9-9-9--9-9-9----------------------------------|
c-9--9-9-9-9--9-9-9-9-9-9--9-9-9-10101010---1010--9--9---9-9-9----|
g-7--7-7-7-7--7-7-7-7-7-7--7-7-7--7-7-7-7--7-7-7--7--7---7-7-7----|
c-7--7-7-7-7--7-7-7-7-7-7--7-7-7--7-7-7-7--7-7-7--7--7---7-7-7----|

Verses Fig 1.

Chorus:

d-----------------------------------------------------------------|
a-1--1-1-1--1---1-1-1-1--1-1-1------------------------------------|
f-3--3-3-3--3---3-3-3-3--3-3-3-10-101010-9--9-9-9--9-9-9-9-9--9---|
c-3--3-3-3--3---3-3-3-3--3-3-3--x--x-x-x-x--x-x-x--x-x-x-x-x--x---|
g-1--1-1-1--1---1-1-1-1--1-1-1--8--8-8-8-7--7-7-7--7-7-8-7-7--7---|
c-----------------------------------------------------------------|

d-----------------------------------------------------------------|
a-3---------------------------------------------------------------|
f-2---------------------------------------------------------------|
c-0---------------------------------------------------------------|
g-0---------------------------------------------------------------|
c-0---------------------------------------------------------------|

Half Time feel

d-----------------------------------------------------------------|
a---------------------------------3-------------------------------|
f-5-------------------------------x-------------------------------|
c-2-------------------------------3-------------------------------|
g-0-------------------------------0-------------------------------|
c---------------------------------0-------------------------------|

Outro Chord:

d-1---------------------------------------------------------------|
a-3---------------------------------------------------------------|
f-2---------------------------------------------------------------|
c-0---------------------------------------------------------------|
g-0---------------------------------------------------------------|
c-0---------------------------------------------------------------|

that's all

trevor jones
timmy91199@yahoo.ca
__________________________________________________________________
Korea Tab by Deftones, www.Ultimate-Guitar.Com

Korea-Deftones
White Pony

Drop C
C G C F A D

d--------------------------------------------------|
a--------------------------------------------------|
f-4---4-4--3-4-4-4--6-4-6-4--4-4--3-4-4-4-6-4-6----|
c--------------------------------------------------|
g-6---6-6--5-6-6-6--5-5-5-6--6-6--5-6-6-6-5-5-5----|
c--------------------------------------------------|

Fig 1.
x3
d--------------------------------------------------------|
a--------------------------------------------------------|
f--------6--6---------6--6---------6--6--4-4-4-4-4-4-4-4-|
c--------5--5---------5--5---------5--5------------------|
g-0-0--0-5--5--0-0--0-5--5--0-0--0-5--5--6-6-6-6-6-6-6-6-|
c-0-0--0-------0-0--0-------0-0--0-----------------------|

d--------------------------------------------------------|
a--------------------------------------------------------|
f--------6--6--4-4-4-4-4-4-4-4-6--6----------------------|
c--------5--5------------------5--5----------------------|
g-0-0--0-5--5--6-6-6-6-6-6-6-6-5--5----------------------|
c-0-0--0-------------------------------------------------|

Verses

d---------------------------------------------------------|
a---------------------------------------------------------|
f-4-4-4-4-4-4-4-4-4-4-4-4-6-4-6-4-4-4-4-4-4-4-4-4-4-6-4-6-|
c---------------------------------------------------------|
g-6-6-6-6-6-6-6-6-6-6-6-6-5-5-5-6-6-6-6-6-6-6-6-6-6-5-5-5-|
c---------------------------------------------------------|

Chorus: Fig 1

Interlude:

d-----------------------------------------------------------------|
a-----------------------------------------------------------------|
f-7-7-7-7-7-7-7-7-9-9-9-9-9-9-9-9-9-7-7-7-7-7-7-7-3-3-3-3-3-3-3-3-|
c-7-7-7-7-7-7-7-7-7-7-7-7-7-7-7-7-7-5-5-5-5-5-5-5-1-1-1-1-1-1-1-1-|
g-5-5-5-5-5-5-5-5-7-7-7-7-7-7-7-7-7-5-5-5-5-5-5-5-1-1-1-1-1-1-1-1-|
c-0-0-0-0-0-0-0-0-7-7-7-7-7-7-7-7-7-5-5-5-5-5-5-5-1-1-1-1-1-1-1-1-|

That's all

trevor Jones
timmy91199@yahoo.ca

__________________________________________________________________
Passenger Tab by Deftones, www.Ultimate-Guitar.Com

Passenger-Deftones
White Pony

Drop C:

C G C F A D

( ) = harmonics

Fig. 1

d-------------------------------------------|
a-------------------------------------------|
f-------------------------------------------|
c-------------7---7-7-------------5---5-5---|
g-------------------------------------------|
c-4--4-4--4-4---4-----4--4-4--4-4---4-------|

d-------------------------------------------|
a-------------------------------------------|
f-------------------------------------------|
c-------------4---4-4-------------4---4-4---|
g-------------------------------------------|
c-4--4-4--4-4---4-----4--4-4--4-4---4-------|

verse 1: fig. 1

verse 2

d-------------------------------------------|
a-------------------------------------------|
f---------------------------------(5)-------|
c-------------(5)---------------------------|
g-------(4)-----------------(4)-------------|
c-(4)-----------------(4)-------------------|

pre chorus:   ..drive faster !.....

d-----------------------------------------------------------------|
a-----------------------------------------------------------------|
f-9-9-9-9-9-9-9-9-9-9-9-9-9-9-9-910--9-910--9-910--9-9--910-9-6-6-|
c-x-x-x-x-x-x-x-x-x-x-x-x-x-x-x-x-x--x-x-x--x-x-x--x-x--x-x-x-5-5-|
g-7-7-7-7-7-7-7-7-7-7-7-7-7-7-7-7-8--7-7-8--7-7-8--7-7--7-8-7-5-5-|
c-0-0-0-0-0-0-0-0-0-0-0-0-0-0-0-0-0--0-0-0--0-0-0--0-0--0-0-0-5-5-|

Chorus: Fig.1 x4

Interlude:

d-----------------------------------------------------------------|
a-----------------------------------------------------------------|
f-6-6-6-6---------------------------------------------------------|
c-4-4-4-4---7-7-7-7---5-5-5-5---4-4-4-4-----4-4-4-(5)--4-4-4-(4)--|
g-4-4-4-4---4-4-4-4---4-4-4-4---4-4-4-4-----4-4-4------4-4-4------|
c-4-4-4-4---4-4-4-4---4-4-4-4---4-4-4-4-3---4-4-4------4-4-4------|

d-----------------------------------------------------------------|
a-----------------------------------------------------------------|
f----------------------------------------------------(5)----------|
c-4-4-4-3---4-4-4-4-----4-4-4-(5)--4-4-4-(4)---4-4-4-(5)4-4-4-4---|
g-4-4-4-3---4-4-4-4-----4-4-4-(5)--4-4-4-(4)---4-4-4----4-4-4-4---|
c-4-4-4-3---4-4-4-4-3---4-4-4------4-4-4-------4-4-4----4-4-4-4-3-|

repeat verse 2

weird harmonics: pick f string behind nut

Piano Outro:

d------21-22--21--------21-22--21--------21-22--21-------21-22--21-|
a-19---------------22---------------19--------------22-------------|
f------------------------------------------------------------------|
c------------------------------------------------------------------|
g------------------------------------------------------------------|
c------------------------------------------------------------------|

That's all

trevor jones
timmy91199@yahoo.ca
__________________________________________________________________
Change Tab by Deftones, www.Ultimate-Guitar.Com

Tabbed by: Brian Moura (Di_DarkFate@Hotmail.com)

This is one of my favorite songs, so i couldn't resist tabbing it. Deftones Rock!

Tuned: CGCFAD

Intro: (x6)

----------------------------------------------------------------------|
----------------------------------------------------------------------|
-10-10-10-10-10-10-10-10-10-10-10-10-10-10-10-------------------------|
--x--x--x--x--x--x--x--x--x--x--x--x--x--x--x--x----------------------|
--8--8--8--8--8--8--8--8--8--8--8--8--8--8--8--0----------------------|
--0--0--0--0--0--0--0--0--0--0--0--0--0--0--0--0----------------------|

----------------------------------------------------------------------|
----------------------------------------------------------------------|
----------------------------------------------------------------------|
-------8-8-8-7-7-7-8-8-8-8-7-5-5--------------------------------------|
-5-5-5-5-5-5-5-5-5-5-5-5-5-5-5-5--------------------------------------|
-5-5-5-----------------------5-5--------------------------------------|

ChOrUs: (x4)

---------------------------------------------------------------------|
---------------------------------------------------------------------|
-7-7-7-7-7-7-7-7-7-7-7-7-7-7-7-7-10-10-10-10-10-10-10-10-10-10-10-10-|
-7-7-7-7-7-7-7-7-7-7-7-7-7-7-7-7--8--8--8--8--8--8--8--8--8--8--8--8-|
-5-5-5-5-5-5-5-5-5-5-5-5-5-5-5-5--8--8--8--8--8--8--8--8--8--8--8--8-|
-0-0-0-0-0-0-0-0-0-0-0-0-0-0-0-0--8--8--8--8--8--8--8--8--8--8--8--8-|

--------|
--------|
-10---10|
--8----8|
--8----8|
--8----8|

VeRsE #1 (x4)

----------------------------------------------------------------------|
----------------------------------------------------------------------|
-10-10-10-10-10-10-10-10-10-10-10-10-10-10-10-------------------------|
--x--x--x--x--x--x--x--x--x--x--x--x--x--x--x--x----------------------|
--8--8--8--8--8--8--8--8--8--8--8--8--8--8--8--0----------------------|
--0--0--0--0--0--0--0--0--0--0--0--0--0--0--0--0----------------------|

----------------------------------------------------------------------|
----------------------------------------------------------------------|
----------------------------------------------------------------------|
-------8-8-8-7-7-7-8-8-8-8-7-5-5--------------------------------------|
-5-5-5-5-5-5-5-5-5-5-5-5-5-5-5-5--------------------------------------|
-5-5-5-----------------------5-5--------------------------------------|

ChOrUs: (x4)

---------------------------------------------------------------------|
---------------------------------------------------------------------|
-7-7-7-7-7-7-7-7-7-7-7-7-7-7-7-7-10-10-10-10-10-10-10-10-10-10-10-10-|
-7-7-7-7-7-7-7-7-7-7-7-7-7-7-7-7--8--8--8--8--8--8--8--8--8--8--8--8-|
-5-5-5-5-5-5-5-5-5-5-5-5-5-5-5-5--8--8--8--8--8--8--8--8--8--8--8--8-|
-0-0-0-0-0-0-0-0-0-0-0-0-0-0-0-0--8--8--8--8--8--8--8--8--8--8--8--8-|

--------|
--------|
-10---10|
--8----8|
--8----8|
--8----8|

PoSt ChOrUs:(x3 And A Half) Last time through Do not repeat the 2nd part
of the post chorus.

----------------------------------------------------------------------|
----------------------------------------------------------------------|
-5--5-5--5-5--5-5--5-5--5-7-7-7-7--7-7-7-7-7--7-7--7------------------|
-3--3-3--3-3--3-3--3-3--3-7-7-7-7--7-7-7-7-7--7-7--7------------------|
-3--3-3--3-3--3-3--3-3--3-5-5-5-5--5-5-5-5-5--5-5--5------------------|
-3--3-3--3-3--3-3--3-3--3-0-0-0-0--0-0-0-0-0--0-0--0------------------|

BrIdGe:

----------------------------------------------------------------------|
----------------------------------------------------------------------|
------------------------------------10--------------------------------|
-----8-8-8-7-7-7-8-8-8------7-7---------------------------------------|
----------------------8-8-8----8-----8--------------------------------|
-5-5---------------------------------0--------------------------------|

----------------------------------------------------------------------|
----------------------------------------------------------------------|
------------------------------------10--------------------------------|
------8-8-8-7-7-7-----------------------------------------------------|
-----------------8-8-8-7-7-7---------8--------------------------------|
-5-5-5-------------------------------0--------------------------------|

----------------------------------------------------------------------|
----------------------------------------------------------------------|
------------------------------------10--------------------------------|
-------8-8-8-7-7-7------7-7-------------------------------------------|
------------------8-8-8----8-8-------8--------------------------------|
--5-5-5------------------------------0--------------------------------|

----------------------------------------------------------------------|
----------------------------------------------------------------------|
----------------------------------------------------------------------|
------8-8-8-7-7-7-----------------------------------------------------|
-----------------8-8-8-7----------------------------------------------|
-5-5-5----------------------------------------------------------------|

Final Chorus: (x4)

----------------------------------------------------------------------|
----------------------------------------------------------------------|
-10-10-10-10-10-10-10-10-10-10-10-10-10-10-10-------------------------|
--x--x--x--x--x--x--x--x--x--x--x--x--x--x--x--x----------------------|
--8--8--8--8--8--8--8--8--8--8--8--8--8--8--8--0----------------------|
--0--0--0--0--0--0--0--0--0--0--0--0--0--0--0--0----------------------|

----------------------------------------------------------------------|
----------------------------------------------------------------------|
----------------------------------------------------------------------|
-5-5-5-8-8-8-7-7-7-8-8-8-8-7-5-5--------------------------------------|
-5-5-5-5-5-5-5-5-5-5-5-5-5-5-5-5--------------------------------------|
-5-5-5-5-5-5-5-5-5-5-5-5-5-5-5-5--------------------------------------|


Post Final Chorus: (x4)

----------------------------------------------------------------------|
----------------------------------------------------------------------|
-5--5-5--5-5--5-5--5-5--5-7-7-7-7--7-7-7-7-7--7-7--7------------------|
-3--3-3--3-3--3-3--3-3--3-7-7-7-7--7-7-7-7-7--7-7--7------------------|
-3--3-3--3-3--3-3--3-3--3-5-5-5-5--5-5-5-5-5--5-5--5------------------|
-3--3-3--3-3--3-3--3-3--3-0-0-0-0--0-0-0-0-0--0-0--0------------------|

Outro: (x3 And a Half)

----------------------------------------------------------------------|
----------------------------------------------------------------------|
-10--10--10--10--10-10-10-10--7--7--7--7--7--7------------------------|
------------------------------5--5--5--5--5--5------------------------|
--8---8---8---8---8--8--8--8--5--5--5--5--5--5------------------------|
--0---0---0---0---0--0--0--0--5--5--5--5--5--5------------------------|
______________________________________________________________________
Author/Artist: Deftones
Title: Pink Maggit
Album: White Pony
Transcribed by: Kevin Quillen
Email: esp_jh2@hotmail.com

This song is tuned in CGCFAD. I freakin LOVE this song.

-----------------------------------------------------------------------------|
-----------------------------------------------------------------------------|
---------------------------------------------3-------------------------------|
-----8------10-------7---5h7-7-8-7-4-----------------------------------------|
---8------8--------5--------------------1------------------------------------|
-8------0--------5--------------------1--------------------------------------|
 Intro. Use a whammy/delay/reverb for best results

-------------------------------------------------------------------------------|
-------------------------------------------------------------------------------|
--------------------------------------------5^---------------------------------|
-----8------10^-----7---5h7-7-8--7-4-------------------------------------------|
---8------8-------5---------------------1--------------------------------------|
-8------0-------5---------------------1----------------------------------------|
 Intro variation used at the end

-----------------------------------------------------------------------------|
-----------------------------------------------------------------------------|
-10-10-10-10-10-10-10-10-10-10-10-10-10-10-10--------------------------------|
-8--8--8--8--8--8--8--8--0--0--0--0--0--0--0---------------------------------|
-8--8--8--8--8--8--8--8--0--0--0--0--0--0--0---------------------------------|
-8--8--8--8--8--8--8--8--0--0--0--0--0--0--0---------------------------------|
 Main riff. Full on distortion.

-----------------------------------------------------------------------------|
-----------------------------------------------------------------------------|
-7-7-7-7-7-7-7-7-7-7--7-7-7-7-7-7-7-7-7-7------------------------------------|
-5-5-5-5-5-5-5-5-5-5--4-4-4-4-4-4-4-4-4-4------------------------------------|
-5-5-5-5-5-5-5-5-5-5--4-4-4-4-4-4-4-4-4-4------------------------------------|
-5-5-5-5-5-5-5-5-5-5--4-4-4-4-4-4-4-4-4-4------------------------------------|
 Continuation of riff. Repeat.

-----------------------------------------------------------------------------|
-----------------------------------------------------------------------------|
-11/12-12-12-12-12/14-14-14-14-14/15-----------------------------------------|
-x-/x--x--x--x--x-/x--x--x--x--x-/x------------------------------------------|
-9-/10-10-10-10-10/12-12-12-12-12/13-----------------------------------------|
-----------------------------------------------------------------------------|
 Play on Guitar 2 behind main riff. End with the intro.

_____________________________________________________________________________
*track off limited edition* -  Boy's Republic

Boys Republic Tab by Deftones, www.Ultimate-Guitar.Com

Here's "The boy's Republic" off of the red or black version of
"White Pony." The other tab kind of sucked so here is my tab.I
have also included the lyrics at the bottom of page.


Verse/Main Riff:

D---------------------------//
A---------------------------//
F--------7-7-7--------------//
C-0-0-0--7-7-7-5-5-5/9-9-9--//
G-0-0-0--5-5-5-5-5-5/9-9-9--//
C-0-0-0--------5-5-5/9-9-9--//

Chorus:

D---------//
A---------//
F-5-5-5---//  <--Play for Infinate # of times.
C-3-3-3---//
G-3-3-3---//
C-3-3-3---//

Bridge:

D-----------------------------------------------------------------//
A-----------------------------------------------------------------//
F-------------11--------------14-------------15--------------12---//
C--------------x---------------x--------------x---------------x---//
G--------------9--------------12-------------13--------------10---//
C-0-0-0-0-0-0----0-0-0-0-0-0-----0-0-0-0-0-0----0-0-0-0-0-0-------//


It's not perfect but, it does require listening for timing. If you
want any other Deftones tab EM for anything.(Guitargawd1@aol.com)
Oh yea, Here's the lyrics:

The Boys Republic

blue star
shine your light down
on everyone cause
i don't care
their soothing me
yes tear lung
blue star
shine your light down
pierce for my face
to heal my veins
down on everyone
cause i do care
their soothing me
tear lungs
it's more it's more
down shine light
shine your light
down
it's more it's more
on everyone cause i don't care
you're soothing me their lungs
blue star
shine your light
shine your light
shine your light down
blue star down
blue star shine down
on everyone cause i don't care
you're soothing me
their lungs
it's more
comments
print report bad tab
1 comment total.
0 reply
Explicit User wrote on June 5 2005, 12:00 am

owie my eyes...im too lazy to highlight all the text!! oh well i did anyway. thanks for the complilation.

I want to post or [tab]
guest
You may want to rate the tab now too:
select rating
Please do not post tabs as comments. Select "correction" instead!