Oops, an error
Loading. Please wait.

White Pony Tab

ver2
ver2

Album

More versions @911Tabs.com
4,444 views 6 this week
4 commentsread comments
1 2 3 4 5
worth learning
x 3
add to favorites launch autoscroll
font size
0
reset
Autoscroll
+/-
esc
set tempo
stop
Contributor
Difficulty
Tuning
intermediate
C G C F A D
WARNING: You are trying to view
                                    content from Ultimate-Guitar.com
                                    in an unauthorized application,
                                    which is prohibited.

                                    Please use an official Ultimate
                                    Guitar Tabs application for iPhone,
                                    iPad or Android to access legitimate
                                    chords, guitar, bass, and drum tabs
                                    from Ultimate-Guitar.com database.

                                    Type "ultimate guitar tabs" in Apple
                                    App Store's or Android Market's
                                    search to find the application.
                    ____________________
     .:|-----------/                    \-----------|:.
   .:::|----------/       DEFTONES       \----------|:::.
   ':::|----------\      WHITE PONY      /----------|:::'
     ':|-----------\____________________/-----------|:'

   Welcome to the guitar tabs for White Pony, the Deftones
third studio album. you will find tabs for every song on the 
album. the entire album is tuned to drop-C so you don't have 
to worry about changing tunings. well have fun. This tab book 
was created by supreemo.

Tuning: Drop-D down 1 step
   1st string -  D
   2nd string -  A
   3rd string -  F
   4th string -  C
   5th string -  G
   6th string -  C

Legend:
   / - slide up
   \ - slide down
 PM. - palm mute
   * - harmonics
   p - pull off
   h - hammer on

Table Of Contents:
   1. Back To School (mini maggit)
   2. Feiticeira
   3. Digital Bath
   4. Elite
   5. RX Queen
   6. Street Carp
   7. Teenager
   8. Knife Prty
   9. Korea
  10. Passenger
  11. Change (in the house of flies)
  12. Pink Maggit




   .:|=================================================================|:.
}-:::|                    Back To School (mini maggit)                 |:::-{
   ':|=================================================================|:'

Intro: clean
D|--13--13-13--13-13--12--12-12-12-12-12--|
A|---x---x--x---x--x--10--10-10-10-10-10--|
F|--10--10-10--10-10----------------------|
C|----------------------------------------|
G|----------------------------------------|
C|----------------------------------------|

Intro 2:
D|----------13-13-13-13-13-13--|
A|-----------x--x--x--x--x--x--|
F|----------10-10-10-10-10-10--|
C|--8---0~-----------~---------|
G|--8---0~-----------~---------|
C|--8---0~-----------~---------|

Verse:           
D|-------------------------13--13--13-13-|
A|-------------------------x---x---x--x--|
F|-------------------------10--10--10-10-|
C|---------------------------------------|
G|---------------------------------------|  
C|--5-5--4-4--8b----0--------------------|

Chorus: 
D|---------------------------------------------------------------------|
A|---------------------------------------------------------------------|
F|---------------------------------------------------------------------|
C|-8888888888888888-0000000000000000-5555555555555555-4444444444444444-|
G|-8888888888888888-0000000000000000-5555555555555555-4444444444444444-|
C|-8888888888888888-0000000000000000-5555555555555555-4444444444444444-|

Bridge:
D|----------13-13-13---|
A|----------x--x--x----|
F|----------10-10-10---|
C|--8---0~-------------|
G|--8---0~-------------|
C|--8---0~-------------|




   .:|=================================================================|:.
}-:::|                             Feiticeira                          |:::-{
   ':|=================================================================|:'

Intro:
D|-----------------------------------------------------|
A|-----------------------------------------------------|
F|-----------------------------------------------------|
C|-----------------------------------------------------|
G|-----------------------------------------------------|
C|-7*7*7*7*77*7*7*7*7*7*7*-0201-7*7*7*7*77*7*7*-020102-|

Verse:
D|-------------------|
A|-------------------|
F|-444444444444------|
C|-xxxxxxxxxxxx------|
G|-222222222222-0201-|
C|--------------0201-|

Bridge:
D|-------------|
A|-------------|
F|-------------|
C|-------------|
G|-------------|
C|-7-----8/--2-|

Chorus:
D|-------------------|
A|-------------------|
F|-666666666666------|
C|-xxxxxxxxxxxx------|
G|-444444444444-0201-|
C|--------------0201-|

Ending:
D|-----------------------------------|
A|-----------------------------------|
F|-4444444444444444-3333333333333333-|
C|-xxxxxxxxxxxxxxxx-xxxxxxxxxxxxxxxx-|
G|-2222222222222222-1111111111111111-|
C|-----------------------------------|




   .:|=================================================================|:.
}-:::|                            Digital Bath                         |:::-{
   ':|=================================================================|:'

Intro/Verse: clean w/slight echo
D|---------------------------------------------|
A|---------------------------------------------|
F|---------------------------------------------|
C|---7~-----0--7--7~------0--7~------0-7--7~---|
G|---4~-----0--4--4~------0--4~------0-4--4~---|
C|---4~-----0--4--4~------0--4~------0-4--4~---|

Pre-Chorus: clean
D|----------------------------------------------------------|
A|----------------------------------------------------------|
F|-----11-----11-11-11--14--14-/-17---16-------11---11-11---|
C|------x------x--x--x---x---x-/--x----x--------x----x--x---|
G|------9------9--9--9--12--12-/-15---14--------9----9--9---|
C|--0---0---------0--0---0---0----0----0----0---0----0------|

D|--------------------------------|-----------------------------|
A|--------------------------------|----------2------------------|
F|---14--14--/--17---17--16--16---|--2-------2--2----2--2-----2-|
C|----x---x--/---x----x---x---x---|--4-------4--0----0--4-----0-|
G|---12--12--/--15---15--14--14---|--4-------4--0----0--4-----0-|
C|----0---0------0--------0-------|--4----------0-------4-----0-|

Bridge: clean
D|----------------------------------------------------------|
A|----------------------------------------------------------|
F|-----------------------------1/2 bend---------------------|
C|--7~----0-7-7------------------4^---(4)----2--------------|
G|--4~----0-4-4------------2----------------------2---------|
C|--4~----0-4-4-----4\-----2---------------------------2----|

D|-------------------------------|
A|---------------------------3---|
F|-----1/2 bend--------------2---|
C|-------4^-----(4)----2-----0---|
G|---------------------------0---|
C|--2------------------------0---|

1st Chorus: Distorted
D|----------------------------------------------------------|
A|----------------------------------------------------------|
F|--2----------2--2-------2--2--------2--2------------------|
C|--4~---------0--4~------0--4--------0--4--------0---------|
G|--4~---------0--4~------0--4--------0--4--------0---------|
C|--4~---------0--4~------0--4--------0--4--------0---------|

2nd Chorus: Distorted
D|-------------------------------------------------------------------|
A|--------------------------------------------10--10-10--10-10-10-10-|
F|--2-----------------------2------------------x---x--x---x--x--x--x-|
C|--4-----4---4-------0-----4-----4--4---0-----7---7--7---7--7--7--7-|
G|--4-----4---4-------0-----4-----4--4---0---------------------------|
C|--4-----4---4-------0-----4-----4--4---0---------------------------|

D|----------------------------------------------------------|
A|------------------------------------------------0---------|
F|--------------------------2---1---11-/-12--11---9-----7---|
C|--4---4---4--4---4----2---2---2----x-/--x---x---x-----x---|
G|--4---4---4--4---4----2---2---2----9-/-10---9---7-----5---|
C|--4---4---4--4---4----2---2---2-----------------------0---|

D|-----------------------------------------------------------|
A|-------------------------------0---------------------------|
F|------2---1----11/12--11--11---9----7------2---------------|
C|--2---2---2-----x--x---x---x---x----x------4----4--4--4--0-|
G|--2---2---2-----9/10---9---9---7----5------4----4--4--4--0-|
C|--2---2---2-------------------------0------4----4--4--4--0-|

D|-----------------------------------------------|
A|-----------------------------------------------|
F|--14--14--14--14--14--14-----------------------|
C|---x---x---x---x---x---x----4---4---4---4---4--|
G|--12--12--12--12--12--12----4---4---4---4---4--|
C|----------------------------4---4---4---4---4--|

3rd Chorus/Outro:
D|----------------------------------------------------------|
A|-------------------------------------------5-----5--5-----|
F|--------2--1-----11/12---11--11---9---7----4-----4--4-----|
C|--2--2--2--0------x--x----x---x---x---x----2-----2--2-----|
G|--2--2--2--2------9/10----9---9---7---5----2-----2--2-----|
C|--2--2--2--2--------------------------0----2-----2--2-----|

D|----------------------------------------------------------|
A|----------------------------------------------------------|
F|-11--11---9----7------------------------------------------|
C|--x---x---x----x----4---4--4--4--0---4---4--4--4--0-------|
G|--9---9---7----5----4---4--4--4--0---4---4--4--4--0-------|
C|---------------0----4---4--4--4--0---4---4--4--4--0-------|

D|----------------------------------------------------------|
A|----------------------------------------------------------|
F|-14--14--14--14--14--14-------14--14----------------------|
C|--x---x---x---x---x---x--------x---x-------4----4---4---4-|
G|-12--12--12--12--12--12-------12--12--0----4----4---4---4-|
C|--------------------------------------0----4----4---4---4-|

D|----------------------------------------------------------|
A|----------------------------------------------------------|
F|------------11---11--11--11-----11--14--14--14--17--16----|
C|--4----------x----x---x---x------x---x---x---x---x---x----|
G|--4----0-----9----9---9---9------9-/12--12--12--15--14----|
C|--4----0-----0----0---0---0------0---0---0-------0---0--0-|

D|----------------------------------------------------------|
A|----------------------------------------------------------|
F|-11-11----11--11---14---14---17---16------------2---------|
C|--x--x-----x---x----x----x----x----x----4---4---4---------|
G|--9--9-----9---9---12---12---15---14----4---4-------0-----|
C|--0-----0--0--------0----0----0----0----4---4-------0-----|

D|----------------------------------------------------------|
A|----------------------------------------------------------|
F|--14-----14-14-14-14-14-14-14-14-14-----------------------|
C|---x------x--x--x--x--x--x--x--x--x-------4---4---4--4--4-|
G|--12-----12-12-12-12-12-12-12-12-12--0----4---4---4--4--4-|
C|-------------------------------------0----4---4---4--4--4-|

D|-----------------------------------------------------------|
A|--5-----5----5---5-----------------------------------5---5-|
F|--4-----4----4---4----11---12--11--11---9------7-----4---4-|
C|--2-----2----2---2-----x----x---x---x---x------x-----2---2-|
G|--2-----2--------2-----9---10---9---9---7------5-----2---2-|
C|--2-----2--------2-----------------------------0-----2---2-|

D|------------------------------------------------------------|
A|--5----5----------------------------------------------------|
F|--4----4---11--12--11--11---9----7-------------2------------|
C|--2----2----x---x---x---x---x----x-----4---4---4-----4---4--|
G|-------2----9--10---9---9---7----5-----4---4------0--4---4--|
C|-------2-------------------------0-----4---4------0--4---4--|

D|-----------------------------------------------------------|
A|-----------------------------------------------------------|
F|--2-------------------2------14-14-14-14-14-14-14-14-14-14-|
C|--4----------4---4----4-------x--x--x--x--x--x--x--x--x--x-|
G|-------0-----4---4-------0---12-12-12-12-12-12-12-12-12-12-|
C|-------0-----4---4-------0---------------------------------|

D|----------------------------|
A|----------------------------|
F|--14-14-14-14--12-12---7~---|
C|---x--x--x--x---x--x---x----|
G|--12-12-12-12--10-10---5~---|
C|-----------------------0~---|




   .:|=================================================================|:.
}-:::|                                Elite                            |:::-{
   ':|=================================================================|:'

Intro/Chorus:
D|-------------------------------------------------------------|
A|-------------------------------------------------------------|
F|-------------------------------------------------------------|
C|-0-2-0-2-3-2-0-2-0-2-0-2-3-2-0-2-0-2-0-2-3-2-0-2-0-3-----0-8-|
G|-0-2-0-2-3-2-0-2-0-2-0-2-3-2-0-2-0-2-0-2-3-2-0-2-0-3-----0-8-|
C|-0-2-0-2-3-2-0-2-0-2-0-2-3-2-0-2-0-2-0-2-3-2-0-2-0-3-----0-8-|

D|---------0-|
A|---------0-|
F|---------0-|
C|-0-2-0-2-3-|
G|-0-2-0-2-3-|
C|-0-2-0-2-3-|

Verse:
D|-------------------------------------------------------------|
A|-------------------------------------------------------------|
F|-------------------------------------------------------------|
C|-------------------------------------------------------------|
G|-------------------------------------------------------------|
C|-0-2-0-2-3-2-0-2-0-2-0-2-3-2-0-2-0-2-0-2-3-2-0-2-0-3-----0-8-|

Bridge:
|---------------------------------|
|---------------------------------|
|-7-7-7-7-7-7-7-7-7-7-7-7-7-7-7-7-|
|-5-5-5-5-5-5-5-5-5-5-5-5-5-5-5-5-|
|-5-5-5-5-5-5-5-5-5-5-5-5-5-5-5-5-|
|-5-5-5-5-5-5-5-5-5-5-5-5-5-5-5-5-|

D|-------------------|
A|-------------------|
F|-------------------|
C|-------------------|
G|-------------------|
C|--0-2-0-2-3-2-0-2--|
PM  . . . . . . . .

Ending:
D|--------------------------------------------------------|
A|--------------------------------------------------------|
F|--------------------------------------------------------|
C|--------------------------------------------------x---x-|
G|--------------------------------------------------x---x-|
C|-0-2-0-2-3-2-0-2-0-2-0-2-3-2-0-2-0-2-0-2-3-2-0-2--x---x-|




   .:|=================================================================|:.
}-:::|                              RX Queen                           |:::-{
   ':|=================================================================|:'

Intro/Verse: clean
D|-----------------|
A|-----------------|
F|-----------------|
C|-----------------|
G|---------2-------|
C|-0--2--2---3-----|

Chorus:
D|------------------------------------------------------|
A|-------5----------------------------------------------|
F|-------4---4----4--4---4------7---7----7-7--7---7-----|
C|-x-0-0-2---2--2-2--2---2--0-0-5---5--5-5-5--5-5-5-5-0-|
G|-x-0-0-2---2--2-2--2---2--0-0-5---5--5-5-5--5-5-5-5-0-|
C|-x-0-0-2---2--2-2--2---2--0-0-5---5--5-5-5--5-5-5-5-0-|

Bridge:
D|---------------------------------|
A|---------------------------------|
F|-5-5-5-5-5-5-5-5-5-5-5-5-5-5-5-5-|
C|-3-3-3-3-3-3-3-3-3-3-3-3-3-3-3-3-|
G|-3-3-3-3-3-3-3-3-3-3-3-3-3-3-3-3-|
C|-3-3-3-3-3-3-3-3-3-3-3-3-3-3-3-3-|

Outro: FX'd
D|---8--------7-----------|
A|------------------------|
F|------------------------|
C|------------------------|
G|------3---------3----3--|
C|------------------------|



   .:|=================================================================|:.
}-:::|                            Street Carp                          |:::-{
   ':|=================================================================|:'

Intro:
D|------------------------| 
A|------------------------| 
F|--444444444/8888888-----| 
C|--xxxxxxxxx/xxxxxxx-----| 
G|--222222222/6666666-----| 
C|------------------------| 
 
Verse: 
D|-----------------------------------------------------------| 
A|-----------------------------------------------------------| 
F|----------------------------------4-4-4-4-4-4-4-4-4/8-8-8--| 
C|--6-7-6-0-6-9-6-0-6-7-6-0-6-9-6-0-x-x-x-x-x-x-x-x-x-x-x-x--| 
G|--6-7-6-0-6-9-6-0-6-7-6-0-6-9-6-0-2-2-2-2-2-2-2-2-2/6-6-6--|
C|--6-7-6-0-6-9-6-0-6-7-6-0-6-9-6-0--------------------------| 

Fill 1:
D|------------------------| 
A|------------------------| 
F|--444444444/8888888-----| 
C|--xxxxxxxxx/xxxxxxx-----| 
G|--222222222/6666666-----| 
C|------------------------| 
 
Chorus: 
D|-----------------------------------------------------------| 
A|------------------------------------------5-5-5-5-5-5-5----| 
F|--8-8-8-8-8-8-8-8-8-8-8-8--9--9\------4-4-4-4-4-4-4-4-4-4--| 
C|--6-6-6-6-6-6-6-6-6-6-6-6--7--7\--2-2-2-2-2-2-2-2-2-2-2-2--| 
G|--6-6-6-6-6-6-6-6-6-6-6-6--7--7\--2-2-2-2-2-2-2-2-2-2-2-2--| 
C|--6-6-6-6-6-6-6-6-6-6-6-6--7--7\--2-2-2-2-2-2-2-2-2-2-2-2--| 
 
 
Outro: 
D|----------------------------------| 
A|----------------------------------| 
F|----------------------------------| 
C|----------------------------------| 
G|----------------------------------| 
C|-6-7-6-0-6-9-6-0-6-7-6-0-6-9-6-0--| 




   .:|=================================================================|:.
}-:::|                              Teenager                           |:::-{
   ':|=================================================================|:'

Intro:
D|--------------------| 
A|--------------------| 
F|---------0----2-----| 
C|--------------------| 
G|-----3--------------| 
C|--3-----------------| 

Verse/Chorus: 
D|-----------------|------------------| 
A|---------0----2--|------------------| 
F|-----------------|---------0h2---0--| 
C|-----------------|------------------| 
G|------3----------|------1-----------|
C|--3--------------|--3---------------|

D|---------------------|--------------------| 
A|---------------------|--------------------| 
F|---------------------|--------------------| 
C|----------0-------3--|--------------------| 
G|------3--------------|------1---3-------1-|
C|--3-----------3------|--1------------1----|




   .:|=================================================================|:.
}-:::|                               Korea                             |:::-{
   ':|=================================================================|:'

Intro: Distortion on
D|-------------------------------------|
A|-------------------------------------|
F|---4---4--4--4--4--4--4---6--6--6----| play twice
C|-------------------------------------|
G|---6---6--6--6--6--6--6---5--5--5----|
C|-------------------------------------|

Verse: Listen for strumming
D|------------------------------------------|
A|------------------------------------------|
F|---4--4--4--4--4--4--4--4---6--6--6-------| 
C|---x--x--x--x--x--x--x--x---x--x--x-------|
G|---6--6--6--6--6--6--6--6---5--5--5-------|
C|------------------------------------------|

Chorus:
D|-------------------------------------------------------------------------|
A|-------------------------------------------------------------------------|
F|---------6--6-------------6--6--------------6--6----4--4--4--4--4--4--4--|
C|---------x--x-------------x--x--------------x--x----x--x--x--x--x--x--x--|
G|-0-0--0--5--5----0-0--0---5--5---0--0----0--5--5----6--6--6--6--6--6--6--|
C|-0-0--0----------0-0--0----------0--0----0-------------------------------|
PM .               .               .

Interlude:
D|-------------------------------------------------------------------------|
A|-------------------------------------------------------------------------|
F|-------------------------------------------------------------------------|
C|---7-7-7-7-/14-14-14-14-14-14-14\\12-12-12-12-12-12-12\\8-8-8-8-8-8-8\\--|
G|---5-5-5-5-/12-12-12-12-12-12-12\\10-10-10-10-10-10-10\\6-6-6-6-6-6-6\\--|
C|-------------------------------------------------------------------------|

Interlude:
D|------------------------------------------------------------------|
A|------------------------------------------------------------------|
F|---2-2-2-2-2-2-2--9-9-9-9-9-9--7-7-7-7-7-7-7--3-3-3-3-3-3-3-------|o
C|---0-0-0-0-0-0-0--7-7-7-7-7-7--5-5-5-5-5-5-5--1-1-1-1-1-1-1-------|o
G|---0-0-0-0-0-0-0--7-7-7-7-7-7--5-5-5-5-5-5-5--1-1-1-1-1-1-1-------|
C|---0-0-0-0-0-0-0--7-7-7-7-7-7--5-5-5-5-5-5-5--1-1-1-1-1-1-1-------|

Outro:                W/echo effect
D|---------------|--------------------------|
A|---------------|--------------------------|
F|---------6--6--|-----4--4--4--4--4--4--4--|
C|---------x--x--|-----x--x--x--x--x--x--x--|
G|-0-0--0--5--5--|-----6--6--6--6--6--6--6--|
C|-0-0--0--------|--------------------------|




   .:|=================================================================|:.
}-:::|                             Passenger                           |:::-{
   ':|=================================================================|:'

Intro/Chorus:
D|---------------------------------------------------------------| 
A|---------------------------------------------------------------| 
F|---------------------------------------------------------------| 
C|----------7--7-7---------5--5-5---------4--4-4---------4--4-4--| 
G|---------------------------------------------------------------| 
C|--4-44-44--4-----4-44-44--4-----4-44-44--4-----4-44-44--4------| 

Verse: 
all harmonics - hold throughout
D|---------------------------------|
A|---------------------------------| 
F|-----------------------------5---| 
C|----------5----------------------|  repeat 
G|------4-----------------4--------| 
C|--4---------------4--------------| 

Pre-Chorus/Interlude: "driiive faaaaster" 
D|-------------------------|----------------------------------------------|
A|-------------------------|----------------------------------------------|
F|---9-9-9-9-9-9-9-9-9-9-9-|10--9-9--10---9-910--9-9-9--9-10--9---6---6---| 
C|-------------------------|--------------------------------------5---5---| 
G|---7-7-7-7-7-7-7-7-7-7-7-|-8--7-7---8---7-7-8--7-7-7--7--8--7---5---5---|
C|---0-0-0-0-0-0-0-0-0-0-0-|-0--0-0---0---0-0-0--0-0-0--0--0--0---5---5---|

Verse 3: 
all harmonics - hold throughout
D|----------------------------------------|
A|----------------------------------------| 
F|-----------------------------5------0---| 
C|----------5-------------4---------------|
G|------4---------------------------------| 
C|--4---------------4---------------------| 

 
Interlude:
D|-----------------------------------------| 
A|-----------------------------------------| 
F|--6-6-6-6--------------------------------| 
C|--4-4-4-4--7-7-7-7--5-5-5-5--4-4-4-4-----| 
G|--4-4-4-4--4-4-4-4--4-4-4-4--4-4-4-4-----| 
C|--4-4-4-4--4-4-4-4--4-4-4-4--4-4-4-4--3--| 
 
D|------------------------------------------|
A|------------------------------------------| 
F|------------------------------------------| 
C|--4-4-4-5*--4-4-4-4*--4-4-4-3--4-4-4-4----| 
G|--4-4-4-----4-4-4-----4-4-4-3--4-4-4-4----| 
C|--4-4-4-----4-4-4-----4-4-4-3--4-4-4-4-3--| 

all harmonics
D|---------------------------------|
A|---------------------------------|
F|------------------------------5--|
C|----------5-------------4--------|
G|------4--------------------------|
C|--4---------------4--------------|
 
Verse 4: all harmonics
D|-------------------------------------|
A|-------------------------------------|
F|-------------------------------------|
C|-------------5-----------------7-----|
G|--------4---------------4------------|
C|----4--------------4-----------------| 
 
end on 
D|-------| 
A|-------| 
F|--6----| 
C|--5----| 
G|--5----| 
C|--5----| 

outro 
with pick scrapes 
D|--------21--22--21------21--22--21--------21--22--21-------21--22--21--| 
A|----19--------------22---------------19----------------22--------------| 
F|-----------------------------------------------------------------------| 
C|-----------------------------------------------------------------------| 
G|-----------------------------------------------------------------------| 
C|-----------------------------------------------------------------------|





   .:|=================================================================|:.
}-:::|                   Change (In The House Of Flies)                |:::-{
   ':|=================================================================|:'

Intro/Verse:
D|-----------------------------------------------------------------------|
A|-----------------------------------------------------------------------|
F|-10-10--10--10-10--10-10-10-10-10-10-----------------------------------|
C|--X--X---X---X--X---X--X--X--X--X--X---5-5-5--7-7--8-8--7-7--8-8--0-0--|
G|--8--8---8---8--8---8--8--8--8--8--8---5-5-5--5-5--5-5--5-5--5-5--0-0--|
C|--0--0---0---0--0---0--0--0--0--0--0---5-5-5--5-5--5-5--5-5--5-5--0-0--|

First Chorus:
D|-------------------------------------|
A|--3-3-3-3-3-3-3-3--------------------|
F|--2-2-2-2-2-2-2-2-1010101010101010---|  
C|--0-0-0-0-0-0-0-0--8-8-8-8-8-8-8-8---|
G|--0-0-0-0-0-0-0-0--8-8-8-8-8-8-8-8---|
C|--0-0-0-0-0-0-0-0--8-8-8-8-8-8-8-8---|

2nd chorus and 3rd chorus:
D|------------------------------------|
A|--3-3-3-3-3-3-3-3-------------------|
F|--2-2-2-2-2-2-2-2-1010101010101010--|
C|--0-0-0-0-0-0-0-0--8-8-8-8-8-8-8-8--|
G|--0-0-0-0-0-0-0-0--8-8-8-8-8-8-8-8--|
C|--0-0-0-0-0-0-0-0--8-8-8-8-8-8-8-8--|

D|-----------------------------------|
A|------------------3-3-3-3-3-3-3-3--|
F|------------------2-2-2-2-2-2-2-2--|
C|--3-3-3-3-3-3-3-3-0-0-0-0-0-0-0-0--|
G|--3-3-3-3-3-3-3-3-0-0-0-0-0-0-0-0--|
C|--3-3-3-3-3-3-3-3-0-0-0-0-0-0-0-0--|

Bridge: clean
D|---------------------------------------------------------|
A|---------------------------------------------------------|
F|---------------------------------------------------------|
C|----8t---7t-------7t---------------8t--7t-------7t-------|
G|------------8t-------8t--0~~-------------8t--7t-----0~~~-|
C|-5t----------------------0~~---5t-------------------0~~~-|

D|-----------------------------------------------------------|
A|-----------------------------------------------------------|
F|-----------------------------------------------------------|
C|------8t---7t-------7t-------------------8t---7t-----------|
G|-------------8t-------8t----0~~~-----------------8t---7~---|
C|--5t------------------------0~~~-----5t--------------------|




   .:|=================================================================|:.
}-:::|                            Pink Maggit                          |:::-{
   ':|=================================================================|:'

Intro: 
D|------------------------------------------------|
A|------------------------------------------------|
F|---------------------------------------------3--|
C|-----8------10-------7---5h7-7-8-7-4------------|
G|---8------8--------5--------------------1-------|
C|-8------0--------5--------------------1---------|

D|------------------------------------------------|
A|------------------------------------------------|
F|--------------------------------------------5^--|
C|-----8------10^-----7---5h7-7-8--7-4------------|
G|---8------8-------5---------------------1-------|
C|-8------0-------5---------------------1---------|

Main Riff:
D|-----------------------------------------------|
A|-----------------------------------------------|
F|-10-10-10-10-10-10-10-10-10-10-10-10-10-10-10--|
C|--8--8--8--8--8--8--8--8--0--0--0--0--0--0--0--|
G|--8--8--8--8--8--8--8--8--0--0--0--0--0--0--0--|
C|--8--8--8--8--8--8--8--8--0--0--0--0--0--0--0--|

D|-------------------------------------------|
A|-------------------------------------------|
F|-7-7-7-7-7-7-7-7-7-7--7-7-7-7-7-7-7-7-7-7--|
C|-5-5-5-5-5-5-5-5-5-5--4-4-4-4-4-4-4-4-4-4--|
G|-5-5-5-5-5-5-5-5-5-5--4-4-4-4-4-4-4-4-4-4--|
C|-5-5-5-5-5-5-5-5-5-5--4-4-4-4-4-4-4-4-4-4--|

D|--------------------------------------|
A|--------------------------------------|
F|-11/12-12-12-12-12/14-14-14-14-14/15--|
C|--x/-x--x--x--x--x/-x--x--x--x--x/-x--|
G|--9/10-10-10-10-10/12-12-12-12-12/13--|
C|--------------------------------------|
comments
We did not receive enough feedback on this tab! Please rate:
1 2 3 4 5
4 comments total. Showing first comments.
0 reply
somewhatdamaged wrote on May 23 2006, 04:56 pm

the tabs for back to school, feiticeira, and digital bath are all horrible..... i didnt even fully read the other tabs because the first three dissapointed me so much..... you need to fix those...

0 reply
JordanLennon wrote on November 19 2007, 10:41 pm

yeah dude...this is really off on a lot of these.

0 reply
Akenuss wrote on January 7 2008, 02:24 pm

you forgot KNIFE PARTY!!!!

I want to post or [tab]
guest
You may want to rate the tab now too:
select rating
Please do not post tabs as comments. Select "correction" instead!