Oops, an error
Loading. Please wait.

Homage For Satan Bass Tab

ver1
ver1

Whole song

Interactive

More versions @911Tabs.com
4,072 views 1 this week
no commentswrite comment
1 2 3 4 5
excellent!
x 2
Autoscroll
+/-
esc
set tempo
stop
Contributor
Hey! There's an official Ultimate Guitar app which is ideal
for learning songs when you're away from computer. Get the app
WARNING: You are trying to view
                                    content from Ultimate-Guitar.com
                                    in an unauthorized application,
                                    which is prohibited.

                                    Please use an official Ultimate
                                    Guitar Tabs application for iPhone,
                                    iPad or Android to access legitimate
                                    chords, guitar, bass, and drum tabs
                                    from Ultimate-Guitar.com database.

                                    Type "ultimate guitar tabs" in Apple
                                    App Store's or Android Market's
                                    search to find the application.
Artist: Deicide
Song: Homage For Satan
Tuning: Eb Ab Db Gb 

Intro
|----------------------------------|----------------------------------|
|----------------------------------|----------------------------------|
|----------------------------------|----------------------------------|
|-0000000000000000-0-1-3-4-0-1-3-4-|-0000000000000000-0-1-4-3-0-1-4-3-|

|----------------------------------|----------------------------------|
|----------------------------------|----------------------------------|
|----------------------------------|----------------------------------|
|-0000000000000000-0-1-3-4-0-1-3-4-|-0000000000000000-4-3-0-1-4-3-0-1-|

Verse
|----------------------------------|----------------------------------|
|----------------------------------|----------------------------------|
|----------------------------------|----------------------------------|
|-0000000000000000-0-1-3-4-0-1-3-4-|-0000000000000000-0-1-4-3-0-1-4-3-|

|----------------------------------|----------------------------------|
|----------------------------------|----------------------------------|
|----------------------------------|----------------------------------|
|-0000000000000000-0-1-3-4-0-1-3-4-|-0000000000000000-4-3-0-1-4-3-0-1-|

Chorus
|-----------------------------------------------------|
|-----------------------------------------------------|
|-111111111-444-222-000000000-333-111---------222-000-|
|------------------------------------444444444--------|

|---------------------------------------------------------|
|---------------------------------------------------------|
|---------------------------------111---------------------|
|-333-111-333-444444-111111111-444---444-333333-000000000-|

|-----------------------------------------------|
|-----------------------------------------------|
|---------------------------------111-----------|
|-333-111-333-444444-111111111-444---444-333333-|

Verse
|----------------------------------|----------------------------------|
|----------------------------------|----------------------------------|
|----------------------------------|----------------------------------|
|-0000000000000000-0-1-3-4-0-1-3-4-|-0000000000000000-0-1-4-3-0-1-4-3-|

|----------------------------------|----------------------------------|
|----------------------------------|----------------------------------|
|----------------------------------|----------------------------------|
|-0000000000000000-0-1-3-4-0-1-3-4-|-0000000000000000-4-3-0-1-4-3-0-1-|

Chorus
|-----------------------------------------------------|
|-----------------------------------------------------|
|-111111111-444-222-000000000-333-111---------222-000-|
|------------------------------------444444444--------|

|---------------------------------------------------------|
|---------------------------------------------------------|
|---------------------------------111---------------------|
|-333-111-333-444444-111111111-444---444-333333-000000000-|

|---------------------------------------------------------|
|---------------------------------------------------------|
|---------------------------------111---------------------|
|-333-111-333-444444-111111111-444---444-333333-000000000-|

|---------------------------------------------------------|
|---------------------------------------------------------|
|---------------------------------111---------------------|
|-333-111-333-444444-111111111-444---444-333333-000000000-|

|-----------------------------------------------|
|-----------------------------------------------|
|---------------------------------111-----------|
|-333-111-333-444444-111111111-444---444-333333-|

Solo Backing
|-------------------------------------------------------|
|-222222-------000000---000-222222-000-222-333333---000-|
|-------222-333------333-------------------------333----|
|-------------------------------------------------------|

|------------------------------------------------------|
|-222222------000000---000-222222-------000------------|
|-------222333------333----------222-333---333-222-000-|
|------------------------------------------------------|

|-------------------------------------------------------|
|--------------000000---000-222222-000-222-333333---000-|
|-------222-333------333-------------------------333----|
|-000000------------------------------------------------|

|-------------------------------------------------------|
|-222222-------000000---000-222222-000-222-333333---000-|
|-------222-333------333-------------------------333----|
|-------------------------------------------------------|

|----------------------------------------------------|
|-222222222222-000000000000-------------------000000-|
|--------------------------222222222222-333333-------|
|----------------------------------------------------|

|---------------------------------------------------|
|-222222222222--------------------------------------|
|-------------------------222222222222-000000---000-|
|-------------333333333333-------------------333----|

|---------------------------|
|---------------------------|
|-222222222222333333--------|
|-------------------10\\\---|

|--------------------------------------------------|
|-222222222222000000000000------------------000000-|
|-------------------------222222222222333333-------|
|--------------------------------------------------|

|--------------------------------------------------|
|-222222222222-------------------------------------|
|-------------------------222222222222000000---000-|
|-------------333333333333------------------333----|

|---------------------------|
|---------------------------|
|-222222222222333333--------|
|-------------------10\\\---|

|--------------------------------------------------|
|-222222------000000---000222222000222333333---000-|
|-------222333------333---------------------333----|
|--------------------------------------------------|

|--------------------------------------------------|
|-222222------000000---000222222------000----------|
|-------222333------333---------222333---333222000-|
|--------------------------------------------------|

|--------------------------------------------------|
|-------------000000---000222222000222333333---000-|
|-------222333------333---------------------333----|
|-000000-------------------------------------------|

|--------------------------------------------------|
|-222222------000000---000222222000222333333---0---|
|-------222333------333---------------------3------|
|--------------------------------------------------|

Verse 
|----------------------------------|----------------------------------|
|----------------------------------|----------------------------------|
|----------------------------------|----------------------------------|
|-0000000000000000-0-1-3-4-0-1-3-4-|-0000000000000000-0-1-4-3-0-1-4-3-|

|----------------------------------|----------------------------------|
|----------------------------------|----------------------------------|
|----------------------------------|----------------------------------|
|-0000000000000000-0-1-3-4-0-1-3-4-|-0000000000000000-4-3-0-1-4-3-0-1-|

|----------------------------------|----------------------------------|
|----------------------------------|----------------------------------|
|----------------------------------|----------------------------------|
|-0000000000000000-0-1-3-4-0-1-3-4-|-0000000000000000-0-1-4-3-0-1-4-3-|

|----------------------------------|----------------------------------|
|----------------------------------|----------------------------------|
|----------------------------------|----------------------------------|
|-0000000000000000-0-1-3-4-0-1-3-4-|-0000000000000000-4-3-0-1-4-3-0-1-|

Chorus

|-----------------------------------------------|
|-----------------------------------------------|
|-111111111444222000000000333111---------222000-|
|-------------------------------444444444-------|

|--------------------------------------------------|
|--------------------------------------------------|
|----------------------------111-------------------|
|-333111333444444111111111444---444333333000000000-|

|-----------------------------------------|
|-----------------------------------------|
|----------------------------111----------|
|-333111333444444111111111444---444333333-|

Second Solo Backing

|--------------------------------------------------|
|-222222222222000000000000------------------000000-|
|-------------------------222222222222333333-------|
|--------------------------------------------------|

|--------------------------------------------------|
|-222222222222-------------------------------------|
|-------------------------222222222222000000---000-|
|-------------333333333333------------------333----|

|---------------------------|
|---------------------------|
|-222222222222333333--------|
|-------------------10\\\---|

|--------------------------------------------------|
|-222222222222000000000000------------------000000-|
|-------------------------222222222222333333-------|
|--------------------------------------------------|

|--------------------------------------------------|
|-222222222222-------------------------------------|
|-------------------------222222222222000000---000-|
|-------------333333333333------------------333----|

|---------------------------|
|---------------------------|
|-222222222222333333--------|
|-------------------10\\\---|

|--------------------------------------------------|
|-222222------000000---000222222000222333333---000-|
|-------222333------333---------------------333----|
|--------------------------------------------------|

|--------------------------------------------------|
|-222222------000000---000222222------000----------|
|-------222333------333---------222333---333222000-|
|--------------------------------------------------|

|--------------------------------------------------|
|-------------000000---000222222000222333333---000-|
|-------222333------333---------------------333----|
|-000000-------------------------------------------|

|--------------------------------------------------|
|-222222------000000---000222222000222333333---0---|
|-------222333------333---------------------3------|
|--------------------------------------------------|

Outro

|---------------------------------------|
|---------------------------------------|
|---------------------------------------|
|-0000000000000000-0-1-3-4-0-1-3-4\\\---|
comments
We did not receive enough feedback on this tab! Please rate:
print report bad tab
1 2 3 4 5
I want to post or [tab]
guest
You may want to rate the tab now too:
select rating
Please do not post tabs as comments. Select "correction" instead!