Oops, an error
Loading. Please wait.

Homage For Satan Tab

ver1
ver1

Solo

Whole song

Interactive

More versions @911Tabs.com
6,150 views 9 this week
no commentswrite comment
1 2 3 4 5
please rate
Autoscroll
+/-
esc
set tempo
stop
Difficulty
advanced
Hey! There's an official Ultimate Guitar app which is ideal
for learning songs when you're away from computer. Get the app
WARNING: You are trying to view
                                    content from Ultimate-Guitar.com
                                    in an unauthorized application,
                                    which is prohibited.

                                    Please use an official Ultimate
                                    Guitar Tabs application for iPhone,
                                    iPad or Android to access legitimate
                                    chords, guitar, bass, and drum tabs
                                    from Ultimate-Guitar.com database.

                                    Type "ultimate guitar tabs" in Apple
                                    App Store's or Android Market's
                                    search to find the application.
                HOMAGE FOR SATAN (solo) - Deicide
----------------------------------------------------------------------------------------------|

Tabbed by: Freddie

Email: killingchildrenband@hotmail.com

Eb----------------------------------------------------------------------|
Bb----------------------------------------------------------------------|
Gb--/16-----------14--16-----14h16p14\12--11-----------------11--14-----|
Db-------------------------------------------------------12-------------|
Ab---------------------------------------------------12-----------------|
Eb-----------------------------------------------14---------------------|

Eb---------------------------------------------------15--17--19---------|
Bb----------------13--12-------------------------17--------------20-----|
Gb--12--------12----------14--12--14---------17-------------------------|
Db---------------------------------------19-----------------------------|
Ab----------------------------------------------------------------------|
Eb----------------------------------------------------------------------|

Eb--24-----22h24p22--20--------------------22--20h22p20--19-------------|
Bb-----------------------24--20--------19--------------------22--20-----|
Gb----------------------------------------------------------------------|
Db----------------------------------------------------------------------|
Ab----------------------------------------------------------------------|
Eb----------------------------------------------------------------------|

Eb---------------------19--22--20--19--17-------------------------------|
Bb---------20--22^-------------------------20--19--17-------------------|
Gb-----21----------------------------------------------19--17--16-------|
Db----------------------------------------------------------------------|
Ab----------------------------------------------------------------------|
Eb----------------------------------------------------------------------|

Eb------------------------------------------------19--20--19------------|
Bb------------------------------------x---20--22------------------------|
Gb--------------------------------x---19--------------------------19----|
Db--19--17--16----------------x---19--------------------------21--------|
Ab--------------19--------x---19----------------------------------------|
Eb------------------------19--------------------------------------------|

Eb----------22--22h24p22--19----------19\----/19----------19-----20-----|
Bb--19--22------------------------20------------------20----------------|
Gb----------------------------21------------------21--------------------|
Db----------------------------------------------------------------------|
Ab----------------------------------------------------------------------|
Eb----------------------------------------------------------------------|

Eb--p17------19\----17--------------------------------------------------|
Bb-------18-----17------17------20\-------------------------------------|
Gb--------------------------17---------16---------16-----14h16p14-------|
Db---------------------------------19---------14------------------------|
Ab----------------------------------------------------------------------|
Eb----------------------------------------------------------------------|

Eb------------------------------------14--15~~~-------------------------|
Bb----------------------------15--17-----------------------15--17-------|
Gb------14----------------14---------------------------16---------------|
Db--17------16--------16------------------------------------------------|
Ab----------------------------------------------------------------------|
Eb----------------------------------------------------------------------|

Eb--15------------------------------------------------------------------|
Bb------17--20^^--------------------------------------------------------|
Gb----------------------------------------------------------------------|
Db----------------------------------------------------------------------|
Ab------------------------------------------------------12p10h12--------|
Eb----------------------12p10h12--------15p12h15------------------------|

Eb----------------------------------------------------------------------|
Bb----------------------------------------------------------------------|
Gb----------------------------------------------------12p9h12-----------|
Db---------------------12p9h12--------14p12h14--------------------------|
Ab-----14p12h14---------------------------------------------------------|
Eb----------------------------------------------------------------------|

Eb--------------------------------------------------12p10h12------------|
Bb------------------12p10h12--------15p12h15----------------------------|
Gb--14p12h14------------------------------------------------------------|
Db----------------------------------------------------------------------|
Ab----------------------------------------------------------------------|
Eb----------------------------------------------------------------------|


                                    t
Eb--15p12h15--------17p15p12--------19p17p12--17^--------17p15----------|
Bb--------------------------------------------------------------17------|
Gb----------------------------------------------------------------------|
Db----------------------------------------------------------------------|
Ab----------------------------------------------------------------------|
Eb----------------------------------------------------------------------|

Eb--15------------------------------------------------------------------|
Bb------15h17--------17p15------15--------------------------------------|
Gb--------------------------16------14h16--------14p12------12----------|
Db------------------------------------------------------14------12------|
Ab----------------------------------------------------------------------|
Eb----------------------------------------------------------------------|

Eb----------------------------------------------------------------------|
Bb----------------------------------------------------------10----------|
Gb-------------------------------9--------12--9------9--12--------------|
Db--h14--------12--9------9--12------------------12---------------------|
Ab--------------------12------------------------------------------------|
Eb----------------------------------------------------------------------|


                                                             t
Eb----------------------10--------12h15--15--------12h15h17--24---------|
Bb--12--10------10--12--------------------------------------------------|
Gb----------12----------------------------------------------------------|
Db----------------------------------------------------------------------|
Ab----------------------------------------------------------------------|
Eb----------------------------------------------------------------------|

Eb------------------------------------------------------------7---------|
Bb------------12--10---------------------------------------8-----10-----|
Gb-----9--12----------11--------------------------------9---------------|
Db------------------------12--14------12--------------------------------|
Ab--------------------------------14------12--14------------------------|
Eb------------------------------------------------12\-------------------|

Eb------------------------7--------------------------7------------------|
Bb--p7-----------------8-----10p7-----------------8-----10p7------------|
Gb------7-----------9--------------7-----------9--------------7---------|
Db----------------------------------------------------------------------|
Ab----------------------------------------------------------------------|
Eb----------------------------------------------------------------------|

Eb--------------7-------------------------12----------------------------|
Bb-----------8-----10p7---------------13------15p12---------------------|
Gb--------9--------------7--------14-----------------12--------14-------|
Db----------------------------------------------------------------------|
Ab----------------------------------------------------------------------|
Eb----------------------------------------------------------------------|

Eb------12---------------------------12---------------------------12----|
Bb--13------15p12----------------13------15p12----------------13--------|
Gb-----------------12--------14-----------------12--------14------------|
Db----------------------------------------------------------------------|
Ab----------------------------------------------------------------------|
Eb----------------------------------------------------------------------|

Eb---------------------------14---------------------------14------------|
Bb--15p12----------------15------17p14----------------15------17p14-----|
Gb---------12--------16-----------------14--------16--------------------|
Db----------------------------------------------------------------------|
Ab----------------------------------------------------------------------|
Eb----------------------------------------------------------------------|

Eb--------------------14---------------------------14-------------------|
Bb----------------15------17p14----------------15------17p14------------|
Gb--14--------16-----------------14--------16-----------------14--------|
Db----------------------------------------------------------------------|
Ab----------------------------------------------------------------------|
Eb----------------------------------------------------------------------|

Eb-------------19--22p19-----------------------19--24p19----------------|
Bb---------20-------------20---------------20-------------20------------|
Gb-----21------------------------------21-------------------------------|
Db----------------------------------------------------------------------|
Ab----------------------------------------------------------------------|
Eb----------------------------------------------------------------------|

Eb-------------19--22p19-----------------------19--24p19----------------|
Bb---------20-------------20---------------20-------------20------------|
Gb-----21------------------------------21-------------------------------|
Db----------------------------------------------------------------------|
Ab----------------------------------------------------------------------|
Eb----------------------------------------------------------------------|

Eb-------------19h22h24----------------------19h22h24-------------------|
Bb------20h22-------------------------20h22-------------------20h22-----|
Gb--21----------------------------21----------------------21------------|
Db----------------------------------------------------------------------|
Ab----------------------------------------------------------------------|
Eb----------------------------------------------------------------------|

Eb--19h22h24-----------24~~~-----------19--------17--19-----17h19p17----|
Bb----------------------------------------------------------------------|
Gb----------------------------------------------------------------------|
Db----------------------------------------------------------------------|
Ab----------------------------------------------------------------------|
Eb----------------------------------------------------------------------|

Eb--p15-----14--------------------14--17--15--------15--20--19--17------|
Bb----------------------------15----------------------------------------|
Gb------------------------16--------------------------------------------|
Db--------------------17------------------------------------------------|
Ab----------------------------------------------------------------------|
Eb----------------------------------------------------------------------|

Eb------17~~~----------------17--20--------24--24~~~------------24------|
Bb--20-------------------18---------------------------------20----------|
Gb-------------------17-------------------------------------------------|
Db----------------------------------------------------------------------|
Ab----------------------------------------------------------------------|
Eb----------------------------------------------------------------------|

Eb-----22h24p22p20--------------------22--20h22p20p19-------------------|
Bb------------------24--20--------19-------------------22--20-----------|
Gb----------------------------------------------------------------------|
Db----------------------------------------------------------------------|
Ab----------------------------------------------------------------------|
Eb----------------------------------------------------------------------|

Eb------20--19h20p19p17--------------------------------20--19^----------|
Bb--17-------------------20--19------------17--19--20-------------------|
Gb-------------------------------------20-------------------------------|
Db----------------------------------------------------------------------|
Ab----------------------------------------------------------------------|
Eb----------------------------------------------------------------------|

Eb----------------------19--17----------17------------------------------|
Bb--------------17--20----------20--19------20--19--17--20--17----------|
Gb--16--17--19----------------------------------------------------------|
Db----------------------------------------------------------------------|
Ab----------------------------------------------------------------------|
Eb----------------------------------------------------------------------|

Eb----------------------------------------------------------------------|
Bb----------15--18--17--15------17--15----------------------------------|
Gb--14--17------------------17----------17--16--17----------------------|
Db--------------------------------------------------19/21--------14-----|
Ab----------------------------------------------------------------------|
Eb----------------------------------------------------------------------|

Eb----------------------------------------------------------------------|
Bb----------------------------------------------------------------------|
Gb--16-----14h16p14------14----------------14-----12h14p12\11--12-------|
Db-------------------17------16--------12-------------------------------|
Ab----------------------------------------------------------------------|
Eb----------------------------------------------------------------------|

Eb----------------------------------------------------------12--15------|
Bb------------------------------------------------12--------------------|
Gb--------------------------------------------12------------------------|
Db--14------------------------------------14----------------------------|
Ab-------------------14---------14--------------------------------------|
Eb------------12h15------12h15------------------------------------------|

Eb--17--------14------------------------19-----24--|--------------------|
Bb----------------15----------------20-------------|--------------------|
Gb--------------------16--------21-----------------|--------------------|
Db-------------------------------------------------|--------------------|
Ab-------------------------------------------------|--------------------|
Eb-------------------------------------------------|--------------------|

| /  slide up
| \  slide down
| h  hammer-on
| p  pull-off
| ~  vibrato
| +  harmonic
| x  Mute note
============================================================================
comments
We did not receive enough feedback on this tab! Please rate:
print report bad tab
1 2 3 4 5
I want to post or [tab]
guest
You may want to rate the tab now too:
select rating
Please do not post tabs as comments. Select "correction" instead!