Oops, an error
Loading. Please wait.

Homage For Satan Tab

ver1
ver1

Solo

Whole song

More versions @911Tabs.com
14,605 views 34 this week
3 commentsread comments
1 2 3 4 5
excellent!
x 5
Autoscroll
+/-
esc
set tempo
stop
Contributor
WARNING: You are trying to view
                                    content from Ultimate-Guitar.com
                                    in an unauthorized application,
                                    which is prohibited.

                                    Please use an official Ultimate
                                    Guitar Tabs application for iPhone,
                                    iPad or Android to access legitimate
                                    chords, guitar, bass, and drum tabs
                                    from Ultimate-Guitar.com database.

                                    Type "ultimate guitar tabs" in Apple
                                    App Store's or Android Market's
                                    search to find the application.
Artist: Deicide
Song: Homage For Satan
Tuning: Eb Ab Db Gb Bb Eb

RIFF 1A INTRO x1

|----------------------------------|----------------------------------|
|----------------------------------|----------------------------------|
|----------------------------------|----------------------------------|
|----------------------------------|----------------------------------|
|-2----------------2-3-5-6-2-3-5-6-|-2----------------2-3-6-5-2-3-6-5-|
|-0000000000000000-0-1-3-4-0-1-3-4-|-0000000000000000-0-1-4-3-0-1-4-3-|
  ................                   ................


|----------------------------------|----------------------------------|
|----------------------------------|----------------------------------|
|----------------------------------|----------------------------------|
|----------------------------------|----------------------------------|
|-2----------------2-3-5-6-2-3-5-6-|-2----------------6-5-2-3-6-5-2-3-|
|-0000000000000000-0-1-3-4-0-1-3-4-|-0000000000000000-4-3-0-1-4-3-0-1-|
  ................                   ................                x



 RIFF 1 VERSE x1

|----------------------------------|----------------------------------|
|----------------------------------|----------------------------------|
|----------------------------------|----------------------------------|
|----------------------------------|----------------------------------|
|-2----------------2-3-5-6-2-3-5-6-|-2----------------2-3-6-5-2-3-6-5-|
|-0000000000000000-0-1-3-4-0-1-3-4-|-0000000000000000-0-1-4-3-0-1-4-3-|
  ................                   ................


|----------------------------------|----------------------------------|
|----------------------------------|----------------------------------|
|----------------------------------|----------------------------------|
|----------------------------------|----------------------------------|
|-2----------------2-3-5-6-2-3-5-6-|-2----------------6-5-2-3-6-5-2-3-|
|-0000000000000000-0-1-3-4-0-1-3-4-|-0000000000000000-4-3-0-1-4-3-0-1-|
  ................                   ................



 RIFF 2 CHORUS x1

|-----------------------------------------------|
|-----------------------------------------------|
|-----------------------------------------------|
|-----------------------------------------------|
|-----------------------------------------------|
|-666666666999777555555555888666444444444777555-|
  .............................................


|--------------------------------------------------|
|--------------------------------------------------|
|--------------------------------------------------|
|--------------------------------------------------|
|--------------------------------------------------|
|-333111333444444111111111444666444333333000000000-|
  ................................................


|-----------------------------------------|
|-----------------------------------------|
|-----------------------------------------|
|-----------------------------------------|
|-----------------------------------------|
|-333111333444444111111111444666444333333-|
  .......................................



 RIFF 1B VERSE x1

|RALPH
|----------------------------------|----------------------------------|
|----------------------------------|----------------------------------|
|----------------------------------|----------------------------------|
|----------------------------------|----------------------------------|
|-2----------------2-3-5-6-2-3-5-6-|-2----------------2-3-6-5-2-3-6-5-|
|-0000000000000000-0-1-3-4-0-1-3-4-|-0000000000000000-0-1-4-3-0-1-4-3-|
| ................                   ................
|
|JACK
|----------------------------------|----------------------------------|
|----------------------------------|----------------------------------|
|----------------------------------|----------------------------------|
|----------------------------------|----------------------------------|
|-2----------------2-3-5-6-2-3-5-6-|-2----------------2-3-6-5-2-3-6-5-|
|-0-----------17\\\0-1-3-4-0-1-3-4-|-0000000000000000-0-1-4-3-0-1-4-3-|
                                     ................


|----------------------------------|----------------------------------|
|----------------------------------|----------------------------------|
|----------------------------------|----------------------------------|
|----------------------------------|----------------------------------|
|-2----------------2-3-5-6-2-3-5-6-|-2----------------6-5-2-3-6-5-2-3-|
|-0000000000000000-0-1-3-4-0-1-3-4-|-0000000000000000-4-3-0-1-4-3-0-1-|
  ................                   ................



 RIFF 2A CHORUS x1

|-----------------------------------------------|
|-----------------------------------------------|
|-----------------------------------------------|
|-----------------------------------------------|
|-----------------------------------------------|
|-666666666999777555555555888666444444444777555-|
  .............................................


|x3
|--------------------------------------------------|
|--------------------------------------------------|
|--------------------------------------------------|
|--------------------------------------------------|
|--------------------------------------------------|
|-333111333444444111111111444666444333333000000000-|
  ................................................


|-----------------------------------------|
|-----------------------------------------|
|-----------------------------------------|
|-----------------------------------------|
|-----------------------------------------|
|-333111333444444111111111444666444333333-|
  .......................................



 SOLO 1 RALPH

|-----------------------------------------------------------------------------|
|-/12b^^^---13-10h12p10----------------------------------13-12-10----10b^^^---|
|-----------------------12-11b^^^------11-12-14-12b^^^------------12----------|
|----------------------------------14-----------------------------------------|
|-----------------------------------------------------------------------------|
|-----------------------------------------------------------------------------|


|--------15-17-19b^^^------24-22-20----------------22-20-19-------------------|
|-/17-19----------------22----------24-22b^^^---20----------22-20b^^^---17-19-|
|-----------------------------------------------------------------------------|
|-----------------------------------------------------------------------------|
|-----------------------------------------------------------------------------|
|-----------------------------------------------------------------------------|


|----17-19-20-19-17-------------------------------------------19-20-19b^^^---|
|-20----------------20-19-17----------------------------20-22----------------|
|----------------------------19-17-16----------------------------------------|
|-------------------------------------19-17-16-------------------------------|
|----------------------------------------------19b^^^------------------------|
|----------------------------------------------------------------------------|


|-------------17-22-17-------------17h19-14-------------14h19-14----|
|----------18----------18-------18----------15-------15----------15-|
|-16-17-19----------------19-19----------------16-16----------------|
|-------------------------------------------------------------------|
|-------------------------------------------------------------------|
|-------------------------------------------------------------------|


|-14h17-14-------12h17-12----12h15-12----------------------------------------|
|----------15-13----------13----------13-12b^^^---10h12p10----10----------13-|
|----------------------------------------------------------12----11b^^^------|
|----------------------------------------------------------------------------|
|----------------------------------------------------------------------------|
|----------------------------------------------------------------------------|


|-------14-15b^^^------------15-17b^^^---------------------------------------|
|-15-17-------------15-17-19-------------20b^^^------------------------------|
|----------------------------------------------------------------------------|
|----------------------------------------------------------------------------|
|----------------------------------------------------------12-14-15-12-14-15-|
|-------------------------------------------------12-13-15-------------------|


|-------------------------------------------------------13-15-17-------15-17-|
|-------------------------------------13-15-17-13-15-17----------17-15-------|
|-------------------12-14-16-12-14-16----------------------------------------|
|-12-14-16-12-14-16----------------------------------------------------------|
|----------------------------------------------------------------------------|
|----------------------------------------------------------------------------|


|-19-17-15-------15-17fb^^^rb^^^---17-15-13----------------------------------|
|----------19-17----------------------------17-15-13-17-15-13----------------|
|-------------------------------------------------------------16-14-12-16-14-|
|----------------------------------------------------------------------------|
|----------------------------------------------------------------------------|
|----------------------------------------------------------------------------|


|----------------------------------------------------------------------------|
|----------------------------------------------------------------------13-15-|
|----------------------------------------------------12-14-16-12-14-16-------|
|-16-14-12-16-14-12----------------12-14-16-12-14-16-------------------------|
|-------------------15-14-12-14-15-------------------------------------------|
|----------------------------------------------------------------------------|

                    A.H.
|---------------------------------------------------------------------------|
|-17-15-13------------------------------------------------------------------|
|----------16-14-12-14b^^^---12--14--16--14--12-----------------------------|
|------------------------------------------------16--14--12--16-14-12-------|
|---------------------------------------------------------------------15-14-|
|---------------------------------------------------------------------------|


|----------------------------------------------------------------------------|
|----------------------------------------------------------------------------|
|----------------------12-14-16-14-12-------12-14-16-14-12-------12-14-16-14-|
|-------------------------------------16-14----------------16-14-------------|
|-12-15-14-12----------------------------------------------------------------|
|-------------15-13-12-------------------------------------------------------|


|----------------------------------------------------------------------------|
|-------------------------------13-15-17-15-13-------13-15-17-15-13-------13-|
|-12-------12-14-16-14-12----------------------16-14----------------16-14----|
|----16-14----------------16-14----------------------------------------------|
|----------------------------------------------------------------------------|
|----------------------------------------------------------------------------|


|----------------------------------------------------------------------------|
|-15-17-15-13-------13-15-17-15-13-------15-17-19-17-15-------15-17-19-17-15-|
|-------------16-14----------------16-14----------------17-16----------------|
|----------------------------------------------------------------------------|
|----------------------------------------------------------------------------|
|----------------------------------------------------------------------------|


|-------------------------------------------------19-20-22-20-19-------20-22-|
|-------15-17-19-17-15-------15-17-19-17-15----------------------22-20-------|
|-17-16----------------17-16----------------17-16----------------------------|
|----------------------------------------------------------------------------|
|----------------------------------------------------------------------------|
|----------------------------------------------------------------------------|


|-24-22-20-------19-20-22-20-19-------20-22-24-22-20----------------20-22-24-|
|----------24-22----------------22-20----------------24-22-20-22-24----------|
|----------------------------------------------------------------------------|
|----------------------------------------------------------------------------|
|----------------------------------------------------------------------------|
|----------------------------------------------------------------------------|

                                                     A.H.
|----------20-22-24----------20-22-24----------20-22-24b^^^---|
|-20-22-24----------20-22-24----------20-22-24----------------|
|-------------------------------------------------------------|
|-------------------------------------------------------------|
|-------------------------------------------------------------|
|-------------------------------------------------------------|



|RALPH
|-19b^^^---19-20-19----------------------17----------20-19-17----17b^^^---|
|-------------------22-20b^^^---17-19-20----20b^^^------------20----------|
|-------------------------------------------------------------------------|
|-------------------------------------------------------------------------|
|-------------------------------------------------------------------------|
|-------------------------------------------------------------------------|
|
|
|JACK
|-------------------------------------------------------------------------|
|-------------------------------------------------------------------------|
|-12b^^^---12-14-12-------------------------------------------------------|
|-------------------16-14b^^^------12-14-16-14b^^^---14-12----------------|
|-------------------------------15-------------------------15-14-15b^^^---|
|-------------------------------------------------------------------------|


|RALPH
|----------19-22/24b^^^------24-22-20-------------19-22-20-19-------------|
|-19-20-22----------------22----------24-22b^^^---------------22-20b^^^---|
|-------------------------------------------------------------------------|
|-------------------------------------------------------------------------|
|-------------------------------------------------------------------------|
|-------------------------------------------------------------------------|
|
|
|JACK
|-------------------------------------------------------------------------|
|-------------------------------------------------------------------------|
|----------12-16/17b^^^------17-16-14----------------16-14-12-------------|
|-12-14-16----------------16----------17-16b^^^---14----------16-14b^^^---|
|-------------------------------------------------------------------------|
|-------------------------------------------------------------------------|



|RALPH
|----20-19-17----------------------17-19-20-19b^^^------------15-17-19-17-15-|
|-19----------20-19b^^^---17-19-20-------------------15-17-19----------------|
|----------------------------------------------------------------------------|
|----------------------------------------------------------------------------|
|----------------------------------------------------------------------------|
|----------------------------------------------------------------------------|
|
|
|JACK
|----------------------------------------------------------------------------|
|----------------------------------------------------------------------------|
|----14-12-11----------------------11-12-14-12b^^^------------12-14-16-14-12-|
|-12----------14-12b^^^---10-12-14-------------------12-14-16----------------|
|----------------------------------------------------------------------------|
|----------------------------------------------------------------------------|


|RALPH
|----17-15-------15----------------------------------------------------------|
|-19-------19-17----17b^^^------------17-15-13----15-13-------13-------------|
|----------------------------12-14-16----------16-------16-14----14/16b^^^---|
|----------------------------------------------------------------------------|
|----------------------------------------------------------------------------|
|----------------------------------------------------------------------------|
|
|
|JACK
|----------------------------------------------------------------------------|
|----------------------------------------------------------------------------|
|----14-12-------12----------------------------------------------------------|
|-16-------16-14----14b^^^------------14-12-10----12-10-------10-------------|
|----------------------------10-12-14----------14-------14-12----12/14b^^^---|
|----------------------------------------------------------------------------|



|RALPH
|-------------------------------------------|
|-------------------------------------------|
|-16-14-12-14-12b^^^---12-------12----------|
|-------------------------16-14----14b^^^---|
|-------------------------------------------|
|-------------------------------------------|
|
|
|JACK
|-------------------------------------------|
|-------------------------------------------|
|-------------------------------------------|
|-------------------------------------------|
|-14-12-10-12-10b^^^---10-------10----------|
|-------------------------14-12----12b^^^---|



|-------------------------------12/17-------------------19-24-----|
|----------------------------13-------18-------------20-----------|
|-------------------------14-------------19-------21--------------|
|-------------------12h14-------------------19-21-----------------|
|----------12-14-15-----------------------------------------------|
|-12-13-15--------------------------------------------------------|
                                                             x



 RIFF 3 x1 UNDER SOLO 1

|--------------------------------------------------|
|--------------------------------------------------|
|--------------------------------------------------|
|--------------------------------------------------|
|-777777222333555555333555777777555777888888333555-|
|--------------------------------------------------|
  ................................................


|--------------------------------------------------|
|--------------------------------------------------|
|--------------------------------------------------|
|--------------------------------------------------|
|-777777222333555555333555777777222333555333222000-|
|--------------------------------------------------|
  ................................................


|--------------------------------------------------|
|--------------------------------------------------|
|--------------------------------------------------|
|--------------------------------------------------|
|-------222333555555333555777777555777888888333555-|
|-000000-------------------------------------------|
  ................................................


|--------------------------------------------------|
|--------------------------------------------------|
|--------------------------------------------------|
|--------------------------------------------------|
|-777777222333555555333555777777555777888888333555-|
|--------------------------------------------------|
  ................................................



 RIFF 4 x2 UNDER SOLO

|--------------------------------------------------|
|--------------------------------------------------|
|--------------------------------------------------|
|--------------------------------------------------|
|-777777777777555555555555222222222222333333555555-|
|--------------------------------------------------|
  ................................................


|--------------------------------------------------|
|--------------------------------------------------|
|--------------------------------------------------|
|--------------------------------------------------|
|-777777777777------------222222222222000000-------|
|-------------333333333333------------------333555-|
  ................................................


|---------------------------|
|---------------------------|
|---------------------------|
|---------------------------|
|-222222222222333333--------|
|-------------------10\\\---|




 RIFF 3A x1 UNDER SOLO 1

|--------------------------------------------------|
|--------------------------------------------------|
|--------------------------------------------------|
|--------------------------------------------------|
|-777777222333555555333555777777555777888888333555-|
|--------------------------------------------------|
  ................................................


|--------------------------------------------------|
|--------------------------------------------------|
|--------------------------------------------------|
|--------------------------------------------------|
|-777777222333555555333555777777222333555333222000-|
|--------------------------------------------------|
  ................................................


|--------------------------------------------------|
|--------------------------------------------------|
|--------------------------------------------------|
|--------------------------------------------------|
|-------222333555555333555777777555777888888333555-|
|-000000-------------------------------------------|
  ................................................


|--------------------------------------------------|
|--------------------------------------------------|
|--------------------------------------------------|
|-------------------------------------------5--7---|
|-7777772223335555553335557777775557778888883--5---|
|--------------------------------------------------|
  ..........................................



 RIFF 1A BREAK x1

 RIFF 1 VERSE x1

 RIFF 2 CHORUS x1


 SOLO 2 JACK

|-14-10h12p10h12p10h12p10-14-10h12p10h12p10h12p10-15-10h12p10h12p10h12p10-|
|-------------------------------------------------------------------------|
|-------------------------------------------------------------------------|
|-------------------------------------------------------------------------|
|-------------------------------------------------------------------------|
|-------------------------------------------------------------------------|
   T                       T                       T

|-15-10h12p10h12p10h12p10-------------------------------------------------|
|-------------------------15-10h12p10h12p10h12p10-15-10h12p10h12p10h12p10-|
|-------------------------------------------------------------------------|
|-------------------------------------------------------------------------|
|-------------------------------------------------------------------------|
|-------------------------------------------------------------------------|
   T                       T                       T

|-------------------------------------------------14-10h12p10h12p10h12p10-|
|-17-12h13p12h13p12h13p12-19-13h15p13h15p13h15p13-------------------------|
|-------------------------------------------------------------------------|
|-------------------------------------------------------------------------|
|-------------------------------------------------------------------------|
|-------------------------------------------------------------------------|
   T                       T                       T

|-14-10h12p10h12p10h12p10-17-10h12p10h12p10h12p10-15-10h12p10h12p10h12p10-|
|-------------------------------------------------------------------------|
|-------------------------------------------------------------------------|
|-------------------------------------------------------------------------|
|-------------------------------------------------------------------------|
|-------------------------------------------------------------------------|
   T                       T                       T

|-14-10h12p10h12p10h12p10-14-10h12p10h12p10h12p10-17-10h12p10h12p10h12p10-|
|-------------------------------------------------------------------------|
|-------------------------------------------------------------------------|
|-------------------------------------------------------------------------|
|-------------------------------------------------------------------------|
|-------------------------------------------------------------------------|
   T                       T                       T

|-15-10h12p10h12p10h12p10-17-10h12p10h12p10h12p10-17-10h12p10h12p10h12p10-|
|-------------------------------------------------------------------------|
|-------------------------------------------------------------------------|
|-------------------------------------------------------------------------|
|-------------------------------------------------------------------------|
|-------------------------------------------------------------------------|
   T                       T                       T

|-17-10h12p10h12p10h12p10-15-10h12p10h12p10h12p10-------------------------|
|-------------------------------------------------19-13h15p13h15p13h15p13-|
|-------------------------------------------------------------------------|
|-------------------------------------------------------------------------|
|-------------------------------------------------------------------------|
|-------------------------------------------------------------------------|
   T                       T                       T

|-------------------------------------------------------------------------|
|-19-13h15p13h15p13h15p13-17-12h13p12h13p12h13p12-17-12h13p12h13p12h13p12-|
|-------------------------------------------------------------------------|
|-------------------------------------------------------------------------|
|-------------------------------------------------------------------------|
|-------------------------------------------------------------------------|
   T                       T                       T

|-------------------------------------------------------------------------|
|-15-10H12p10h12p10h12p10-15-10h12p10h12p10h12p10-17-12h13p12h13p12h13p12-|
|-------------------------------------------------------------------------|
|-------------------------------------------------------------------------|
|-------------------------------------------------------------------------|
|-------------------------------------------------------------------------|
   T                       T                       T

|-------------------------14-10h12p10h12p10h12p10-14-10h12p10h12p10h12p10-|
|-19-13h15p13h15p13h15p13-------------------------------------------------|
|-------------------------------------------------------------------------|
|-------------------------------------------------------------------------|
|-------------------------------------------------------------------------|
|-------------------------------------------------------------------------|
   T                       T                       T

|-15-10h12p10h12p10h12p10-15-10h12p10h12p10h12p10-------------------------|
|-------------------------------------------------19-13h15p13h15p13h15p13-|
|-------------------------------------------------------------------------|
|-------------------------------------------------------------------------|
|-------------------------------------------------------------------------|
|-------------------------------------------------------------------------|
   T                       T                       T

|-------------------------------------------------------------------------|
|-19-13h15p13h15p13h15p13-15-10h12p10h12p10h12p10-15-10h12p10h12p10h12p10-|
|-------------------------------------------------------------------------|
|-------------------------------------------------------------------------|
|-------------------------------------------------------------------------|
|-------------------------------------------------------------------------|
   T                       T                       T

|-------------------------------------------------------------------------|
|-17-12h13p12h13p12h13p12-17-12h13p12h13p12h13p12-15-10h12p10h12p10h12p10-|
|-------------------------------------------------------------------------|
|-------------------------------------------------------------------------|
|-------------------------------------------------------------------------|
|-------------------------------------------------------------------------|
   T                       T                       T

|-----------------------------------------------------------------------------|
|-17-12h13p12h13p12h13p12-----------------------------------------------------|
|-----------------------------------------------------------------------------|
|------------------------/14"14"99910"12"12"10"12"14"14"12"14"15"15"14"15"17"-|
|-----------------------------------------------------------------------------|
|-----------------------------------------------------------------------------|
   T

|---------------------------------------------------------------------------|
|---------------------------------------------------------------------------|
|---------------------------------------------------------------------------|
|-17"15"17"19"19"17"19"20"20"19"20"-22b^^^---14"14"99910"12"10"12"14"12"14"-|
|---------------------------------------------------------------------------|
|---------------------------------------------------------------------------|


|-----------------------------------------------------------------------------|
|--------------------------------------------------------------------24b^^^---|
|----------------------------------------15"17"19"17"19"20"19"20"22"----------|
|-15"14"15"17"15"17"19"17"19"20"19"20"22"-------------------------------------|
|-----------------------------------------------------------------------------|
|-----------------------------------------------------------------------------|

 RIFF 4 x2 UNDER SOLO 2

 RIFF 3A x1 UNDER SOLO 2


 RIFF 1C END x1

|---------------------------------------|
|---------------------------------------|
|---------------------------------------|
|---------------------------------------|
|-2----------------2-3-5-6-2-3-5-6\\\---|
|-0000000000000000-0-1-3-4-0-1-3-4\\\---|
  ................
comments
print report bad tab
3 comments total.
0 reply
666hailsatan666 wrote on March 28 2009, 10:20 pm

Very good tab, perfect, 5/5

0 reply
sicksucks wrote on December 31 2012, 12:29 pm

Very good 5/5

0 reply
c.soriano wrote on August 13 2013, 11:42 am

Awesome, Tab

I want to post or [tab]
guest
You may want to rate the tab now too:
select rating
Please do not post tabs as comments. Select "correction" instead!