Oops, an error
Loading. Please wait.

Scars Of The Crucifix Guitar Pro

ver1
ver1

Whole song

Interactive

More versions @911Tabs.com
13,146 views 15 this week
2 commentsread comments
1 2 3 4 5
excellent!
x 6
add to favorites
Autoscroll
+/-
esc
set tempo
stop
Filesize
Instruments
52 Kb
guitar #1, guitar #2, guitar #3, bass, percussion
WARNING: You are trying to view
                                    content from Ultimate-Guitar.com
                                    in an unauthorized application,
                                    which is prohibited.

                                    Please use an official Ultimate
                                    Guitar Tabs application for iPhone,
                                    iPad or Android to access legitimate
                                    chords, guitar, bass, and drum tabs
                                    from Ultimate-Guitar.com database.

                                    Type "ultimate guitar tabs" in Apple
                                    App Store's or Android Market's
                                    search to find the application.
"Scars Of The Crucifix"
demo version
Play now

or get full version for Free

Get full version now!
To learn and play this song
in Tab Pro, start free trial
Start free trial

or get $10 off Welcome Bonus

Get welcome bonus
Get access to Tab Pro version of “Scars Of The Crucifix”!
Tab Pro is a premium guitar tab service, available on PC, Mac, iOS and Android
START FREE TRIAL
To download “Scars Of The Crucifix” Guitar Pro tab click button below
Please note that you must have Guitar Pro software installed on your
computer in order to view this file.
comments
report bad tab
2 comments total.
0 reply
Gessu wrote on November 25 2010, 08:56 am

Bass starts playing at bar 6 not at the beginning, and isnt that melody behind intro riff played with octaves not power chords? Otherwise nice tab

+1 reply
CloudsofGrass wrote on February 11 2013, 02:36 am

Fist half of the solo is all wrong. The sweep arpeggios are Bbm-AbMaj-GbMaj-Fmin-Bbmin-Abmaj-Dbmaj-AbMaj, the first part uses 5 string "C" shape arpeggios starting on the E string, and the next part uses the same arpeggios but with a tapped octave note on top. The last half of the solo with the diminished arpeggios and such sounds a bit off as well.


220 bpm eighth note triplets throughout
Fist part (Five string sliding arpeggios):
Bbmin AbMaj GbMaj Fmin Bbmin AbMaj DbMaj Abmaj
Eb|----------10h14s12p9-------------7h10s9p5-------------10h14s12p9----------------14h17s12p9----------|
Bb|--------12----------10----------8--------7----------12----------10------------15----------10--------|
Gb|------11--------------9--------7----------6-------11--------------9---------14--------------9-------|
Db|----12-----------------11-----9------------7----12-----------------11-----16-----------------11-----|
Ab|--14---------------------12s10--------------9s14---------------------12s17----------------------12--|
Eb|----------------------------------------------------------------------------------------------------|x2
Second Part (Sweep tapped arpeggios):
Bbmin Abmaj Gbmaj Fmin Bbmin AbMaj DbMaj AbMaj x2
T T T T T T T T
Eb|--19p14p10--------17p12p9-------15p10p7-----14p9p5---19p14p10-------17p12p9-------22p17p14-------17p12p9------|
Bb|----------12-------------10------------8----------7----------12------------10-------------15------------10----|
Gb|------------11-------------9------------7----------6-----------11------------9--------------14------------9---|
Db|--------------12------------11-----------9----------7------------12-----------11--------------16-----------11-|
Ab|----------------14------------12----------10---------9-------------14-----------12--------------17----------12|
Eb|--------------------------------------------------------------------------------------------------------------|

I want to post or [tab]
guest
You may want to rate the tab now too:
select rating
Please do not post tabs as comments. Select "correction" instead!