Oops, an error
Loading. Please wait.

Here We Go Again Chords

ver2
ver2
More versions @911Tabs.com
6,261 views 36 this week
no commentswrite comment
1 2 3 4 5
excellent!
x 2
add to favorites launch autoscroll
font size
0
reset
transpose
0
reset
highlight chords
display chords
Autoscroll
+/-
esc
set tempo
stop
Contributor
WARNING: You are trying to view
                                    content from Ultimate-Guitar.com
                                    in an unauthorized application,
                                    which is prohibited.

                                    Please use an official Ultimate
                                    Guitar Tabs application for iPhone,
                                    iPad or Android to access legitimate
                                    chords, guitar, bass, and drum tabs
                                    from Ultimate-Guitar.com database.

                                    Type "ultimate guitar tabs" in Apple
                                    App Store's or Android Market's
                                    search to find the application.
Demi Lovato
Here We Go Again
Here We Go Again
2009 Hollywood Records

Tuning: All Songs are in Standard Tuning

Tracklist:
01. Here We Go Again
02. Solo
03. You've Got Nothing On Me
04. Falling Over Me
05. Quiet
06. Catch Me
07. Everytime You Lie
08. Got Dynamite
09. Stop The World
10. World of Chances
11. Remember December
12. Everything You're Not
13. Gift of a Friend
14. So Far So Great

____________________________________________

1.) Here We Go Again

Key: F

Tuning: Standard EADGBe

Chords used:
F -   133211
C -   x32010
Dm -  xx0231
Bb -  x13331
Gm -  355333
C/E - 032xxx
Am -  x02210


Intro:

Guitar 1:
          F                 Dm                Bb         F
e|-1---------------|-1--3--5--3--1-3-|-6--5--3--1--3-5-|-1-|
B|----1------------|-----------------|-----------------|---|
G|-------2--0----0-|-----------------|-----------------|---|
D|-------------3---|-----------------|-----------------|---|
A|-----------------|-----------------|-----------------|---|
E|-----------------|-----------------|-----------------|---|
         x2

Guitar 2: until verses
e|---------------------------------|
B|---------------------------------|
G|-----0-----2-----3-----2-----0---|
D|-3-3---3-3---3-3---3-3---3-3---3-| x4
A|---------------------------------|
E|---------------------------------|


Verse 1:
F
  I throw all of your stuff away
And then I clear you out of my head
Dm
  I take you out of my heart
Bb
  And ignore all your messages
F
  I celebrate when we got through
                                 Dm
Cause I'm so much better without you
                             Bb
But it's just another pretty lie
Cause I break down
Gm                  Bb
Everytime you come around
O Oh O Oh


Chorus:
   F
So how did you get here
Under my skin?
  C
I swore that I'll never
let you back in
Gm
Should have known better
                     Bb
In trying to let you go
Cause here we go go go again
F
Part of that joy I
know I can't quit
C
Something about you
Is so addictive
      Gm
We're falling together
                        Bb
You think to find now I know
Cause here we go go go again


Verse 2:
F
  You never know what you want
You never say what you need
Dm
  But I start to go insane
Bb
  Everytime that you look at me
F
  You only hear half of what I say
                                 Dm
And you're always showing up too late
                                 Bb
And I know that I should say goodbye
But it's no use
Gm                       Bb
Can't Be With Or Without You
O Oh O Oh


(Repeat Chorus)


Bridge:
Bb C Dm F C/E Dm x2
Ohhh
     Bb
And Again
      C
(And Again)
     Dm
And Again
      F    C/E Dm
(And Again)
     Bb C Dm F C/E Dm
And Again


Verse 3:
F
  I threw all of
your stuff away
And I cleared
you out of my head
Dm
  And I tore you
          Bb
out of my heart
O Oh O Oh
O Oh O Oh


(Repeat Chorus)


Outro:
            F
here we go again
            C
here we go again
Gm
Should have known better
                     Bb
In trying to let you go
                        F--
Cause here we go go go again
again again again again...


Guitar 2: Outro, Very fast sweeping!!!
         F                   C                 Gm          Bb
e|-6-5-----8-6-5---|---------------5-6-|-6-5-----8-6-5---|-10-|
B|-----8-6-------6-|-5-------5-6-7-----|-----8-6-------6-|----|
G|-----------------|-----5-7-----------|-----------------|----|
D|-----------------|-------------------|-----------------|----|
A|-----------------|-------------------|-----------------|----|
E|-----------------|-------------------|-----------------|----|
         x4                                   x4


"again and again..."
e|-1---------------|
B|----1------------|
G|-------2--0----0-|
D|-------------3---|
A|-----------------|
E|-----------------|
         x2

_____________________________________________

2.) Solo

Key: C

Tuning: Standard eADGBe

Chords used:
C -    x32010
G/B -  x2x003
G -    320003
Am -   x02210
Bb -   x13331
F -    133211
Em -   022000
D/F# - 2x023x


Intro: C--

Demi Speaks: "Go on and kiss!!!"


Verse 1:
    C
You sing to me
and in your words
           G/B
i hear the melody
but in the twilight
        Am
it's so hard to see
                 F
what's wrong for me
  C
i can't resist
until you give the
        G
truth a little twist
as if you're gonna
     Am
get away with this
              F
you're not sorry


Refrain 1:
Em        F            G
i can't believe i fell for this


Chorus 1:
C                  G
i fell through the hole
            Am             F
down at the bottom of your soul
C                      Bb   Am G
didn't think you would go solo
C                   G
look at what you've done
            Am
you're listening to
         F
what you want?
C
got me ready to
Bb   Am G   C
go solo   solo


Piano: at "solo"
e|-19--12--13--7--8-|
B|------------------|
G|------------------|
D|------------------|
A|------------------|
E|------------------|


Verse 2:
    C
you sing to me
too bad you couldn't
     G
even stay it on key
                       Am
if real life is such a mystery
why didn't you just
         F
stick to acting oh
        C
here we go again
you couldn't find my
       G
number until when
you thought that you
             Am
could get to my best friend
without a script your
       F
game is lacking


Refrain 2:
Em        F            G
i can't believe i fell for this
i fell for this


Chorus 2:
C                  G
i fell through the hole
            Am             F
down at the bottom of your soul
C                      Bb   Am G
didn't think you would go solo
C                   G
look at what you've done
            Am
you're listening to
         F
what you want?
C
got me ready to
Bb   Am G
go solo


Bridge:
Am
  id rather go out
to a party alone
F
  than have to walk
            D/F#
around with you on my
   Am
arm  now i have further
to admit that you're done
F
good luck trying
   G
to fight back


Chorus 3:

Guitar Solo:
   C         G          Am          F
e|-12-|-10--7h8p7-5-|-5------|------------|
B|----|-------------|----3h5-|-1----------|
G|----|-------------|--------|----2h4p2---|
D|----|-------------|--------|----------3-|
A|----|-------------|--------|------------|
E|----|-------------|--------|------------|


  C                      Bb   Am G
i didn't think you would go solo
C                   G
look at what you've done
            Am               F
you're listening to what you want?
C               Bb   Am G
got me ready to go solo


Outro:
C G          Am  F
   now we're done
       C               Bb   Am G
you've got me ready to go solo
  C G Am F until fade out
solo

_____________________________________________

3.) You've Got Nothing On Me

Key: G

Tuning: Standard EADGBe

Chords used:
G -  320033
C -  x32010
Em - 022000
D -  xx0232
D7 - xx0212
Am - x02210
Cm - x35543


Intro: G
You Got nothing on me!!! x4

Guitar 2:
e|-5-3----------------|
B|------3-0--0--------|
G|-------------2--2-0-|
D|--------------------| x2
A|--------------------|
E|--------------------|


Verse 1:
G
Summer came and
took me by surprise
California sunshine
     Am
in my eyes
Am
Driving with
    G
the top down
         D7
We sing along
D      G
To our favorite song
                 D
Nothing could go wrong
G
Happy as we gazed
under the moon
You kissed me and it
           Am
never felt too true
Am        G           D7
Hard to believe in anything
    D         G
You thought I survived
                        D
I wont let you break my heart


Chorus 1:
    C      G       D
Now I know who you are
                   C
You got nothing on me
  G
I see I should have
D
known it from the start
You got nothing on me
C         G       D
You Can't tell me lies
don't even try
   C     Cm     G
Cuz this is goodbye goodbye


Guitar 2: at "goodbye"
e|-5-3----------------|
B|------3-0--0--------|
G|-------------2--2-0-|
D|--------------------| x2
A|--------------------|
E|--------------------|


Verse 2:
G
Caught me from the
corner on my eye
you smiled like a girl
             Am
while passing by
Am
Thought you had me
G                   D7
fooled but you were wrong
  D                 G
I know what's going on
                      D
And it didn't take me long
   G
It wasn't hard to read between the lines
                                   Am
The necklace in your car that wasn't mine
Am              G         D7
Nothing I would give do or say
D            G
Now I'm on my way
             D
Now it's too late?


Chorus 2:
    C      G       D
Now I know who you are
                   C
You got nothing on me
  G
I see I should have
D
known it from the start
You got nothing on me
C         G       D
You Can't tell me lies
don't even try
   C     Cm
Cuz this is good-


Bridge:
  Em
- bye To broken promises
     G
It's time to face your
             D      Em
carelessness, don't pull
me with your apologies
  G
I thought I wrecked
                   D
everything on your knees
                   Am
You got nothing on me
                   C D
You got nothing on me


Chorus 3:

Plucking:
    C      G       D
Now I know who you are
                   C
You got nothing on me
  G
I see I should have
D(hold)
known it from the start


Distortion:
C         G       D
You Can't tell me lies
don't even try
   C     Cm     G  D
Cuz this is goodbye


Chorus 4:
    C      G       D
Now I know who you are
                   C
You got nothing on me
  G
I see I should have
D
known it from the start
You got nothing on me
C         G       D
You Can't tell me lies
don't even try
   C     Cm     G-- x4
Cuz this is goodbye
goodbye


Guitar 2: at "goodbye"
e|-5-3----------------|
B|------3-0--0--------|
G|-------------2--2-0-|
D|--------------------| x2
A|--------------------|
E|--------------------|

_____________________________________________

4.) Falling Over Me

Key: E

Tuning: Standard EADGBe

Chords used:
E -     022100
A -     x02220
C#m -   x46654
B -     x24442
F#m -   244222
D -     xx0232
G#/C -  x365xx
F#/Bb - x143xx
E/G# -  476xxx


Intro: E--A-- x2

Guitar 2: until verses
e|-----------------|
B|-----------------|
G|-----9-----9-8---|
D|---9-----9-----9-| x4
A|-7-----7---------|
E|-----------------|

Piano:
e|-14-12------14-12--16-|
B|--------12------------|
G|----------------------|
D|----------------------|
A|----------------------|
E|----------------------|


Verse 1:
     E       A
I'm standing in the
              E   A
center of the room
  E
I watch the boys
A               E   A
follow girls perfume
E
All is as it
A             C#m D
should be I assume
  F#m
Except for the distance
  B
between me and you


Verse 2:
        E
You're standing as a
A             E   A
flower on the wall
    E
The room is still but
A              E   A
we're about to fall
    B
And all the names
     A
that brought us here
F#/Bb        B
Simply fade away


Chorus 1:
E
Who you are
   A
is falling over me
 C#m
(Who you are
   A
is falling over me)
E
Who you are is
A
everything I need
 C#m
(Who you are is
A          G#/C
everything I need)
    C#m
I'm hoping
    B
I'm wating
    A
I'm praying you
B       E  C#m
are the one
    A
I'm hoping
    E/G#
I'm wating
    F#m
I'm praying you
B
are the one


Interlude: E--A--E--C#m-A-


Verse 3:
  E
I can't belive that
A                   E  A
night turned into today
  E
I used the line you
A                E  A
were supposed to say
    B
And all the names that
A
brought us here
F#/Bb          B
Now we have to thank


Chorus 1:
E
Who you are
   A
is falling over me
 C#m
(Who you are
   A
is falling over me)
E
Who you are is
A
got me on my knees
 C#m
(Who you are is
A         G#/C
got me on my knees
    C#m
I'm hoping
    B
I'm wating
    A
I'm praying you
B
are the one


Bridge:
E/G#
    If you are I will
A
wait I will follow
B              C#m
  I'm here to stay
E/G#
   As long as we're
A
promised tomorrow
  B
I promise you
     F#m     A
today   I'll wait
F#m     B
   I'll wait


Chorus 3:
E/G#
Who you are
   A
is falling over me
 C#m
(Who you are
   A
is falling over me)
E
Who you are is
A
got me on my knees
 C#m
(Who you are is
A          G#/C
everything I need)
    C#m
I'm hoping
    B
I'm wating
    A
I'm praying you
B       E  C#m
are the one
    A
I'm hoping
    E/G#
I'm wating
    F#m
I'm praying you
B       E  A E A
are the one


Outro:
            E  A E A
You are the one

_____________________________________________

5.) Quiet

Key: C

Tuning: Standard EADGBe

Chords used:
C -    x32010
Caug - x345xx
Csus - x33010
F# -   244322
G# -   466544
Am -   x02210
F -    133211
Fm -   133111
G -    320033
C/E -  032xxx


Verse 1:
C                          Caug
  I hear a word you're not saying
                Csus
It's driving me crazy
                     F
It's like we stopped breathing
            C
in this room We're both
              Caug
the last to believing
                   Csus
I know what you're thinking
             F
I wish you'd make your move


Verses Riff:
          C                Caug             Csus                F
e|-----------------|-----------------|-----------------|-----------------|
B|-----------------|-----------------|-----------------|-----------------|
G|---5---5---5---5-|---5---5---5---5-|---5---5---5---5-|---5---5---5---5-|
D|-----------------|-4---4---4---4---|-5---5---5---5---|-3---3---3---3---|
A|-3---3---3---3---|-----------------|-----------------|-----------------|
E|-----------------|-----------------|-----------------|-----------------|
          x2                x2               x2                 x2


Chorus:
     C
It's much too
             G#
quiet in here
             Am
I wanna disappear
I'm very nice so
F        Fm
thinking too clear
C                 G#
It's too quiet in here
                Am
Make it all go away
Why can't we break the
F       Fm
silence finally


Verse 2:
C
  It's like you know
          F#
where I'm going you
          G
Follow me home but I
        F        G#
never invite you inside
C
  I see what you're
    F#
not showing
                 G
I've got you all opened
The airing is so
F
silly it's weird


(Repeat chorus)


Bridge:
F
  Don't talk don't stop
               G
telling me goodnight
Just promise you'll
            C/E
kiss me goodbye
              F
what took you so long
F
  Don't tell me you're
          G
not gonna try
the tentions building
      C/E
in my mind
         F
I wanna scream
             Fm
that i'm the one


(Repeat Chorus)


Outro: C-G#-

                Am
Make it all go away
F                 C(hold)
It's too quiet in here

_________________________________________

6.) Catch Me

These chords are exactly what Demi used.
Watch her live performance of
this song for proof no capo required!!!

Key: E

Tuning: Standard EADGBe

Chords used:
A -   x02220
B -   x24442
C#m - x46654
E -   022100
G#m - 466444
C -   x32010
F#m - 244222


Verse 1:
         A        E
Before I fall too fast
        A
Kiss me quick
            E
But make it last
   C#m           G#m
So I can see how badly
          A
this will hurt me
                 B
When you say goodbye
        A
Keep it sweet
         E
Keep it slow
        A
Let the future pass
          E
But don't let go
    C#m             G#m
But tonight I could fall to soon
        A             B
to this beautiful moonlight


Chorus 1:
    A         B
But you're so hypnotizing
E            B                A
  You got me laughing while I sing
            B           E
You got me smiling in my sleep
A           B              E
  And I can say this I'm unraveling
         B                 A
And your love is where I'm falling
   B            E
So please don't catch me


Verse 2:
         A
See this heart
             E
Don't settle down
       A
Like a child running
              E
scared from a clown
    C#m          G#m
I'm terrified of what you'll do
    A
My stomach screams just
               B
when I look at you
         A
Run far away
         E
So I can breath
     A
Even though your far
                E
from suffocating me
       C#m               G#m
But I can't set my hopes to high
          A                     B
Cuz every hello ends with a goodbye


Chorus 2:
    A         B
But you're so hypnotizing
E            B                A
  You got me laughing while I sing
            B           E
You got me smiling in my sleep
A           B              E
  And I can say this I'm unraveling
         B                 A
And your love is where I'm falling
    B            E
But please don't catch me


Bridge:
        C#m
Now you see
         B
Why I'm scared
        C#m
I can't open up my
          B     A
heart without a care
          F#m
So here I go
            G#m
It's what I feel
            C
And for the first time in
my life I know it's real


Chorus 3:
    A         B
But you're so hypnotizing
E            B                A
  You got me laughing while I sing
            B           E
You got me smiling in my sleep


(this part is fast punk rock beat!!!)
A           B              C#m
  And I can say this I'm unraveling
         B                 A
And your love is where I'm falling
   B            C#m     B
So please don't catch me
A              B
  And when I'm out?
             C#m     B
please don't break me
A          B
I'm giving up
        E(hold)
So just catch me

_________________________________________

7.) Everytime You Lie

This is a Pop-Jazz song by Demi!!! haha
Her vocie suits this musical genre!!!

Key: Eb

Tuning: Standard EADGBe

Chords used:
Cm -     x35543
Fm -     133111
Bb -     x13331
Eb -     x68886
G# -     466544
G#m -    466444
Eb/G -   365xxx
F -      133211
Eb/C#  - x4x34x
C -      x32010
Bb7 -    x13131


Intro:

Piano:
      Cm        Fm       Bb      Eb
e|-10--8----|-------|----------|---|
B|-------11-|-8-----|-11--9-11-|-8-|
G|----------|----10-|----------|-8-|
D|-10-------|-------|--8-------|---|
A|----------|-8-----|----------|---|
E|----------|-------|----------|---|

      Cm        Fm      Bb     Eb
e|-10--8----|-------|--------|---|
B|-------11-|-8-----|-9----9-|-8-|
G|----------|----10-|----7---|-8-|
D|-10-------|-------|-8------|---|
A|----------|-8-----|--------|---|
E|----------|-------|--------|---|


Cm          Fm
la da da da da
Bb       Eb
da da da da
        Cm  Fm Bb Eb
ooh ooh yeah


Verse 1:
        Cm           Fm
now you told me on a sunday
        Bb           Eb
that it wasn't gonna work
  Cm             Fm
i tried to cry myself to sleep
         Bb              Eb
cause it was supposed to hurt
    Cm               Fm
we stand next to the fire
       Bb                Eb
as the flame was burning out
  Cm                 Fm
i know what you were thinking
           Bb      Eb
before you say it aloud


Refrain 1:
G#               G#m
don't say you're sorry
      Eb/G
cause i'm not even breaking
G#         G#m       Fm
you're not worth the time
             Bb
that this is taking


Chorus 1:
    Cm     Fm
and i knew better
        Bb
than to let you
         Eb
break my heart
    Cm
the soul you'll
      Fm
never see again
Bb
won't be showing
 Eb
scars oh no no
Cm        Fm
you still love her
      Bb
i can see it
        Eb
in your eyes
    Cm
the truth is all
     Fm
that i can feel
Bb            Eb
everytime you lie oh


Post Chorus:
Cm Fm Bb            Eb
      everytime you lie
Cm Fm Bb            Eb
      everytime you lie


Verse 2:
  Cm               Fm
i woke up the next morning
        Bb         Eb
with a smile on my face
      Cm           Fm
and a long list of gentlemen
Bb                 Eb
happy to take your place
     Cm            Fm
less trashier much classier
     Bb               Eb
then who you prove to be
    Cm
how long is it gonna
Fm              Bb
take before you see
               Eb
that she is no me oh no


Chorus 2:
    Cm     Fm
and i knew better
        Bb
than to let you
         Eb
break my heart
    Cm
the soul you'll
      Fm
never see again
Bb
won't be showing
 Eb
scars oh no no
Cm        Fm
you still love her
      Bb
i can see it
        Eb
in your eyes
    Cm
the truth is all
     Fm
that i can hear
Bb
everytime you-


Bridge:
Eb      Eb/C# C
lie and I    awake
           Fm
I will be sleeping
            Bb7
til morning breaks

that's the price you
Eb      Eb/C#    C
pay for your  mistake
          Fm   Bb
goodye to dream
   G#               G#m
so don't say you're sorry
      Eb/G          G#m
cause i'm not gonna listen


Chorus 3:
    Cm     Fm
and i knew better
        Bb
than to let you
         Eb
break my heart
    Cm
the soul you'll
      Fm
never see again
Bb
won't be showing
 Eb
scars oh no no
Cm        Fm
you still love her
      Bb
i can see it
        Eb
in your eyes
    Cm
the truth is all
     Fm
that i can feel
Bb            Eb
everytime you lie oh


Outro:
Cm Fm Bb
      everytime
    Eb
you lie
Cm
don't say
       Fm
you're sorry
Bb
everytime you
    Eb
you lie
Cm
don't say
       Fm
you're sorry
Bb Eb
ooh
    Cm
the truth is all
     Fm
that i can hear
Bb            Eb(hold)
everytime you lie

____________________________________________

8.) Got Dynamite

Key: G

Tuning: Standard EADGBe

Chords used:
Em -   022000
G -    320033
Am -   x02210
C -    x32010
B -    x24442
Bm -   x24432
A/C# - x476xx
F# -   244322
E -    022100


Intro: Em-- x4

Guitar 2: Until Verses
e|-----------------------------------------------|
B|-----------------------------------------------|
G|-----------------------------------------------|
D|-------------2----------------------2----------|
A|---------0------2--0------------0------2-1-0---|
E|-0-0-0-0---0---------3--0-0-0-0---0----------3-|


Verse 1:
Em
  I can't take your hand
And lead you to the water
I can't make you feel
What you don't feel but
you know you wanna
Find out how to crack
       A/C#
me Log in and hack me


Refrain:
C              B
Underneath the surface
         D
There so much you
        A/C# E
need to know
        C
And you might feel
          B
like your drowning
          D
And thats what I
            B
need to let go


Chorus:
Em
Tell me what you've got
         G
to break down the walls
C                     F#
  You just might need dynamite
Em
Tell me what you've got
         G
to break down the walls
C                   F#
  Kick senseless my defences
Em                        G
Tell me what your gonna do
       C                F#
I need you to light the fuse
Em
Tell me what you've got to
      G
break down the walls
C
  You just might
     F#
need dynamite


Post Chorus:
Em
  Got dynamite?


Verse 2:
Em
  I can't paint
this picture
Just so you can
hang it
I can't wait
understand If you
just don't get it
Find out how to crack
       A/C#
me Log in and hack me


(Repeat Chorus)


Bridge:
C          G
  When the walls come
         D
crashing down
  Bm
I hope your standing
                  C
right in front of me
         G
Where my past lies
     D    Bm
all around
C
  coz all you need
G
  to save me
D
  is to intervine
C              G
  And make the walls
              D   C(hold)
come crashing down
          Em  G C F#
I got dynamite


(Repeat Chorus)


Outro:
Em
  I got dynamite
I got dynamite

________________________________________

9.) Stop The World

Key: F#

Tuning: Standard EADGBe

Chords used:
C# -   x46664
Ebm -  x68876
F# -   244322
B -    x24442


Intro: C#--Ebm-F#-B- x2

Guitar 2:
e|-4-6-4-6-4-6-4-6-4-6-4--4----|
B|---------------------------7-|
G|-----------------------------|
D|-----------------------------| x4
A|-----------------------------|
E|-----------------------------|

Piano: 2nd turn B chord
E|-16-18-14-16-13-14-11-13-9-11-7-9-6-7-4-6--|
B|----------------------------------------------------|
G|----------------------------------------------------|
D|----------------------------------------------------|
A|----------------------------------------------------|
E|----------------------------------------------------|


Verse 1:
C#
I don't know why
  Ebm
I dont know why
   B
Im so afraid
(so afraid)
    C#
And i dont know how
Ebm
I dont know how
   B
to fix the pain
(fix the pain)
      C#
We're living a lie
Ebm
living a lie
        B
we just need to
change (need to change)
    C#
Cuz we're out of time
Ebm
we're out of time
         B
and its still the same


Chorus 1:
                  C#
You cant stop the world
           Ebm
but theres so much
F#        B
more that we could do
                   C#
You cant stop this girl
     Ebm     F#
From falling more
   B
in love with you
           C#
You said nobody
has to know
Ebm            F#
If its time to go
    B
and take it slow
But i can stop
    C#
the world stop
        Ebm
If they finally
F#     B
let us be alone


Post Chorus:
           C#  Ebm F# B
let us be alone


Guitar 2: At Post Chorus
e|-4-6-4-6-4-6-4-6-4-6-4--4----|
B|---------------------------7-|
G|-----------------------------|
D|-----------------------------| x2
A|-----------------------------|
E|-----------------------------|

Piano: 2nd turn B chord
E|-16-18-14-16-13-14-11-13-9-11-7-9-6-7-4-6--|
B|----------------------------------------------------|
G|----------------------------------------------------|
D|----------------------------------------------------|
A|----------------------------------------------------|
E|----------------------------------------------------|


Verse 2:
    C#
I'm Hearing the noise
Ebm
hearing the noise
     B
from all around
(from all around)
    C#
And im on the edge
Ebm
Im on the edge
   B
of breaking down
(of breakin down)
     C#
Like Bonnie and
      Ebm
Clide let's kinda ride
    B
and take this town
   C#
to keep it alive
Ebm
keep it alive
     B
dont make a sound


Chorus 2:
                 C#
We cant stop the world
           Ebm
but theres so much
F#        B
more that we could do
                   C#
You cant stop this girl
     Ebm     F#
From falling more
   B
in love with you
           C#
You said nobody
has to know
Ebm            F#
If its time to go
    B
and take it slow
But i can stop
    C#
the world stop
        Ebm
If they finally
F#     B
let us be alone
let us be i


Bridge:
C#
never wanna take
F#           B
  That final blow
     C#
I'll turn the other page
Ebm                B
  I wont close the book


(Repeat Chorus 1)


Outro:
           C#  Ebm F# B
let us be alone
           C#  Ebm F# B
let us be alone
           C#  Ebm F# B
let us be alone

______________________________________

10.) World Of Chances

This is 100% correct!!! no capo required

Key: Bb

Tuning: Standard EADGBe

Chords used:
Gm -  355333
Eb -  x68886
Bb -  x13331
F/A - x032xx
C -   x32010
F -   133211


Intro: Gm-Eb-Bb-F/A- x2

Guitar 2:
e|-------13--11--10------------13--11--10--18-|
B|----11-------------13-----11----------------|
G|-12--------------------12-------------------|
D|--------------------------------------------|
A|--------------------------------------------|
E|--------------------------------------------|


Verse 1:
Gm           Eb
  You've got a face for
   Bb       F/A
a smile you know
Gm        Eb
  A shame you waste it
           Bb
When youre breaking
    F/A       Gm
me slowly but I've
      Eb
Got a world of
Bb      F
chances for you
Gm         Eb
I've got a world of
Bb      F/A
chances for you
Gm         Eb
I've got a world of
C
Chances chances
that you're
Eb
burning through


Verse 2:
Gm         Eb          Bb F/A
  I've got a paper and pen
Gm        Eb          Bb
  I go to write a goodbye
          F/A
And thats when I know
    Gm      Eb
I've  Got a world of
Bb      F
chances for you
Gm         Eb
I've got a world of
Bb      F/A
chances for you
Gm         Eb
I've got a world of
C
Chances chances
that you're
Eb
burning through


Chorus:
Gm      C
Ohhhhhh I'm going
       F
my own way
My faith has lost
     Bb           F/A
its strength again
    Gm
And Ohhhhhh It's been
    C       F
too hard to say
We're falling off
    Bb
the edge again
F/A        Bb
   We're reverie
F/A        Bb
   We're reverie


Interlude: Gm-Eb-Bb-F/A-

Guitar 2:
e|-------13--11--10--18-|
B|----11----------------|
G|-12-------------------|
D|----------------------|
A|----------------------|
E|----------------------|


Verse 3:
Gm      Eb
  Maybe you'll call
       Bb F/A
me someday
    Gm     Eb
Here  the operator
        Bb
say the numbers no
F/A
good And that she
Gm      Eb
  had a world of
Bb      F
chances for you
Gm          Eb
she had the world of
Bb      F/A
chances for you
Gm          Eb
she had the world of
C
Chances chances
that you put
Eb             C
burning through
chances
that you put
Eb             C
burning through
chances
that you put
Eb
burning through


Interlude: Gm-Eb-Bb-F/A-


Verse 4:
Gm           Eb
  You've got a face for
   Bb       F/A(hold)
a smile you know

___________________________________________

11.) Remember December

Key: G#

Tuning: Standard EADGBe

Chords used:
Fm -   133111
C# -   x46664
G# -   466544
Eb -   x68886
Bbm -  x13321
G#/C - x365xx
C/E -  032xxx


Intro: Fm--G#--C#- x2

Guitar 2:
   Fm       G#    C#
e|-----|---------|--|
B|-----|---------|--|
G|-----|---------|--|
D|-3---|-5--6----|--| x2
A|-----|-------4-|--|
E|-----|---------|--|

Guitar 3: Tremolo Effects Pedal
e|-----------------------------|
B|-----------------------------|
G|-10-10-10-10-10-10--|
D|-----------------------------|
A|-----------------------------|
E|-----------------------------|

Piano:
   Fm       G#        C#
e|-----|---------|-4--3----|
B|-----|---------|-------2-|
G|-----|---------|---------|
D|-----|---------|---------|
A|-----|---------|---------|
E|-----|---------|---------|

   Fm       G#    C#
e|-1---|-3--4----|--|
B|-----|-------2-|--|
G|-----|---------|--|
D|-3---|---------|--|
A|-----|---------|--|
E|-----|---------|--|


Verse 1:
  Fm     G#
I feel a separation
C#
coming on
        Fm        G#
cause i know that you
             C#
once told me moving on
Fm
i wish it would
 G#
snow tonight
C#
pull me in and
avoid a fight
        Fm
Cause i feel
  G#         C#
A separation coming on


Guitar 2: "i wish it would snow tonight tonight"
e|------------------------------|
B|------------------------------|
G|------------------------------|
D|-3--3-3-3--3--3-3-3--3--3-3-3-|
A|------------------------------|
E|------------------------------|


Verse 2:
     Fm         G#
Just prove that there
           C#
is nothing left to try
          Fm
it is the truth
  G#
i rather wish it'd
C#
move tonight?
    Fm
you kiss me with
      G#
those open eyes
   C#
It says so much
                    Fm
it's no surprise to you
    G#
but I've got something
C#         (hold)
left to say


Chorus:
         Eb
Don't surrender
   Fm        C#
surrender surrender
         Eb
please remember
  Fm       C#
remember December
we where so in
G#/C
love back then
        C#
how you please tonight
   Bbm
do what they say
      Fm
don't go that way
  Eb
Remember
  Fm       C#
remember December


Guitar 2: Chorus, fast sweeping!!!
         Eb                  Fm
E|-----------------|----------------------|
B|---------8-----9-|------------8-------9-|
G|-----8-----8-----|------10------10------|
D|---8---8-----8---|---10----10------10---|
A|-6---------------|-8--------------------|
E|-----------------|----------------------|

                      C#
e|------------------------------------9-11---|
B|----------------------------------8------9-|
G|------------------8------------10----------|
D|------10-11-10--------------10-------------|
A|---11----------11---11---11----------------|
E|-9---------------------9-------------------|


Post Chorus 1:
C/E      Fm    G# C#
Please remember
         Fm    G# C#
Don't surrender


Verse 3:
    Fm       G#
you said you wouldn't
         C#
let them change your mind
           Fm
cause when here
  G#             C#
together by your melts the ice
    Fm                 G#
our hearts are both on overdrive
C#
come with me let's
                  Fm
run tonight don't let
      G#           C#         (hold)
these memories you left behind


(Repeat Chorus)


Post chorus 2: Semi Solo
C#/E     Fm
Please remember


Guitar 2:
e|-----------------------------|
B|-----------------------------|
G|-----------------------------|
D|-----------------------------|
A|------------------------4--3-|
E|-1--1-4-1-4-3-1-1-4-1-1------|

e|--------------------------|
B|--------------------------|
G|------------------------8-|
D|------------------------8-|
A|------------------------6-|
E|-1--1-4-1-4-3-1-1-4-1-1---|


Bridge:
Eb  Fm
I remember
that together
We both promised
that forever
Eb         Fm
  We could do this
fight the pressure
please remember
December Don't surrender


Guitar solo: Fm--G#--C#- x2

Guitar 2: b means bend
e|-1--3-4----1--3-4-6b-|
B|--------2------------|
G|---------------------|
D|---------------------|
A|---------------------|
E|---------------------|


(Repeat Chorus)


Outro:
C/E      Fm
Please remember
Eb       Fm   Eb Fm(hold)
Don't surrender

____________________________________________

12.) Everything You're Not

Key: G#

Tuning: Standard EADGBe

Chords used:
Fm -   133111
Eb -   x68886
G# -   466544
G#/C - x365xx
C# -   x46664
Bbm -  x13321
C#m -  x46654
Cm -   x35543
C -    x32010
B -    x24442


Intro: G#-Bbm-C#-

Piano:
e|-4--3----|
B|-------4-|
G|---------|
D|---------|
A|---------|
E|---------|


Verse 1:
          G#
I've been bruised and
          Bbm
I've been broken
        C#
Can't belive that I put
                G#    Bbm C#
up with all this  pain
          G#
I've been used and I was
Bbm            C#
choking on the promise
                    G#  Bbm   C#
I would never fall again   hmm


Refrain 1:
  Fm      Eb     G#
I used to sing between
             C#
your twisted symphony
    Fm         Eb
The words that had me
G#
trapped inside your
C#         Fm    Eb
misery But now I know
    G#
The reason why I
C#       C#m
couldn't breathe


Chorus:
      Fm    Eb
Cause all I want is
G#                C#
everything you're not
   Fm
So go ahead and
 Eb
slam the door
      C#
Cause you can't
        G# Bbm G# Bbm
shut me out
    Fm   Eb      G#
And no i don't I don't
              C#
care what you say
      Bbm
Cause all I really
G#/C          C#
all  I really want
   Eb
Is everything you're not


Post Chorus 1:
Fm      Eb    Cm
  Never gonna break
   Fm
my heart again
G#      Bbm   Cm
  Never gonna see
your face again
(Everything you're not)
Fm      Eb    Cm
  Never wanna feel
     Fm       Bbm Cm(hold)
this way again


Guitar 2: After Post Chorus
e|----------|
B|-4h6------|
G|------3h5-|
D|----------|
A|----------|
E|----------|


Verse 2:
     G#
Your darkness was my
Bbm             C#
weakness but it turns out
                     G#  Bbm    C#
That it only went so deep   deep
  G#            Bbm
A meaningless diversion
        C#
that is all that you
              G#   Bbm  C#
Ever meant to me me   me  me


Refrain 2:
    Fm   Eb   G#
And I am done with
             C#
your twisted symphony
    Fm         Eb
The words that had me
G#                C#
sound like stolen poetry
  Fm       Eb        G#
I tore the pages and I
    C#      C#m
can finally breathe


(Repeat Chorus)


Post Chorus 2:
Fm      Eb    Cm
  Never gonna break
my heart again
G#      Bbm   Cm
  Never gonna see
your face again


Bridge:
Cm
  I want a gentleman who
C#
treats me like a queen
Cm
  I need respect I need love
Fm      Eb   C#
nothing in between
Cm
  I will not spell it out
B   Bbm
for you if you can't see
      G#/C       C#
Cause you're not worthy
            G#/C
you don't deserve me
          Bbm Eb
A now I'm gone
Everything you're
   Fm   Eb   Bbm
not  not  not
Everything you're
   Fm   Eb   C#
not  not  not
C
1 2 3


(Repeat Chorus)


Outro:
Fm      Eb    Cm
  Never gonna break
my heart again
G#      Bbm   Cm
  Never gonna see
your face again
(Everything you're not)
Fm      Eb    Cm
  Never wanna feel
              G# Bbm Cm
this way again
(Repeat x3)

____________________________________

13.) Gift Of A Friend

This song sounds like her old song UNTIL YOU'RE MINE

Key: F#

Tuning: Standard EADGBe

Chords used:
Ebm -   x68876
B -     x24442
F# -    244322
C#/F -  143xxx
C# -    x46664
F#/Bb - x143xx
G#m -   466444
Bbm -   x13321


Intro: Ebm-B-F#-C#/F-Ebm-B-C#--

Guitar 2:
     Ebm       B        F#     C#/F
e|-2--1-----|------|---------|------|
B|------4-2-|-4----|-2-------|------|
G|----------|----4-|----3----|--1---|
D|----------|------|-------4-|------|
A|----------|------|---------|------|
E|----------|------|---------|------|

     Ebm       B             C#
e|-2--1-----|------|-2--4--6--4--6-4---|
B|------4-2-|-4----|-----------------7-|
G|----------|----4-|-------------------|
D|----------|------|-------------------|
A|----------|------|-------------------|
E|----------|------|-------------------|

Violin:
        Ebm          B          F#      C#/F
e|-14--13--------|--------|------------|-----|
B|---------16-14-|-16-----|-14---------|-----|
G|---------------|-----16-|-----15-----|-13--|
D|---------------|--------|---------16-|-----|
A|---------------|--------|------------|-----|
E|---------------|--------|------------|-----|

        Ebm          B            C#
e|-14--13--------|--------|-14--16--18--16-|
B|---------16-14-|-16-----|----------------|
G|---------------|-----16-|----------------|
D|---------------|--------|----------------|
A|---------------|--------|----------------|
E|---------------|--------|----------------|


Verse 1:
Ebm           B
Sometimes You think You'll
   F#          C#
Be Find by Yourself
        Ebm
Cause a Dream is a
B        C#
Wish You Make all alone
    Ebm     B
Its Easy to Feel Like
F#            C#
You Dont Need Help
        B
But Its Harder To
F#           C#
Walk On Your Own


Refrain:
       G#m
You'll Change
  Bbm       Ebm
Inside When You
   C#
Realize


Chorus 1:
The World
         B
Comes To Life
    F#           C#
and Everything's right
       Ebm        B
From Beginning To End
     G#m
When You Have a
C#             B
Friend By Your Side
     F#           C#
That Helps You To Find
    G#m       F#/Bb
The Beauty Of All
            Ebm
When You'll Open
     C#/F
Your Heart and
  B
Believe in
C#
  The Gift of a Friend


Interlude: Ebm-B-F#-C#/F-Ebm-B-C#--

Guitar 2:
     Ebm       B        F#     C#/F
e|-2--1-----|------|---------|------|
B|------4-2-|-4----|-2-------|------|
G|----------|----4-|----3----|--1---|
D|----------|------|-------4-|------|
A|----------|------|---------|------|
E|----------|------|---------|------|

     Ebm       B             C#
e|-2--1-----|------|-2--4--6--4--6-4---|
B|------4-2-|-4----|-----------------7-|
G|----------|----4-|-------------------|
D|----------|------|-------------------|
A|----------|------|-------------------|
E|----------|------|-------------------|

Violin:
        Ebm          B          F#      C#/F
e|-14--13--------|--------|------------|-----|
B|---------16-14-|-16-----|-14---------|-----|
G|---------------|-----16-|-----15-----|-13--|
D|---------------|--------|---------16-|-----|
A|---------------|--------|------------|-----|
E|---------------|--------|------------|-----|

        Ebm          B            C#
e|-14--13--------|--------|-14--16--18--16-|
B|---------16-14-|-16-----|----------------|
G|---------------|-----16-|----------------|
D|---------------|--------|----------------|
A|---------------|--------|----------------|
E|---------------|--------|----------------|


Verse 2:
Ebm         B
Someone Who knows When
     F#             C#
Your Lost and Your Scared
Ebm
There through The
B             C#
Highs and The Lows
Ebm             B
Someone You Can Count
   F#          C#/F
On Someone Who Cares
  Ebm             F#       C#
Besides You Where Ever You Go


(Repeat Refrain)
(Repeat Chorus 1)


Interlude: F#/Bb--F#-C#/F-


Bridge:
    Ebm
And When your Hope Crashes Down
B
Shattering To The Ground
F#
You'll, You'll
          C#
Feel All Alone
         Ebm
When You Dont Know
Which Way To Go
    C#/F
And There's No signs
            B   C#
Leading You home
            C#
You're Not Alone


Chorus 2:
The World
         B
Comes To Life
    F#           C#
and Everything's right
       Ebm        B
From Beginning To End
     G#m
When You Have a
C#             B
Friend By Your Side
     F#           C#
That Helps You To Find
    G#m       F#/Bb
The Beauty Of All
            Ebm
When You'll Open
     C#/F
Your Heart and
  G#m     F#/Bb
Believe in
           Ebm     C#/F
When You Believe In
          B
You Can Believe In
C#
  The Gift of a Friend


Piano: "The world comes to life"
e|-14-13----14-13----14-13----14-13----|
B|-------14-------14-------14-------14-|
G|-------------------------------------|
D|-------------------------------------|
A|-------------------------------------|
E|-------------------------------------|


Outro: Ebm-B-F#-C#/F-Ebm-B-C#--

Guitar 2:
     Ebm       B        F#     C#/F
e|-2--1-----|------|---------|------|
B|------4-2-|-4----|-2-------|------|
G|----------|----4-|----3----|--1---|
D|----------|------|-------4-|------|
A|----------|------|---------|------|
E|----------|------|---------|------|

     Ebm       B             C#
e|-2--1-----|------|-2--4--6--4--6-4---|
B|------4-2-|-4----|-----------------7-|
G|----------|----4-|-------------------|
D|----------|------|-------------------|
A|----------|------|-------------------|
E|----------|------|-------------------|

Violin:
        Ebm          B          F#      C#/F
e|-14--13--------|--------|------------|-----|
B|---------16-14-|-16-----|-14---------|-----|
G|---------------|-----16-|-----15-----|-13--|
D|---------------|--------|---------16-|-----|
A|---------------|--------|------------|-----|
E|---------------|--------|------------|-----|

        Ebm          B            C#
e|-14--13--------|--------|-14--16--18--16-|
B|---------16-14-|-16-----|----------------|
G|---------------|-----16-|----------------|
D|---------------|--------|----------------|
A|---------------|--------|----------------|
E|---------------|--------|----------------|

_______________________________________________

14.) So Far So Great

Key: G then E

Tuning: Standard EADGBe

Chords used:
Em -    022000
C -     x32010
D -     xx0232
Am -    x02210
E -     022100
G#m -   466444
A -     x02220
B -     x24442
F#m -   244222
C#m -   x46654
G#/C -  x365xx
F#/Bb - x143xx


Intro:
e|-------------|
B|-------------|
G|---0---2---0-|
D|-2---2---2---|
A|-------------|
E|-------------|


Verse 1:
Em         C
Off to the races
D         Am
I'm going places
Em         C
Might be a long shot
D         Am
not gonna waste it
Em          C
This is the big break
D          Am
  And it's calling
   C    B
my name yeah


Chorus:
E           G#m
  So far so great
Get with it
A
  At least that's
F#m
how I see it
A
Having a dream is
B
just the beginning
E           G#m
  So far so great
Believe it
A             F#m
  Can't take away
this feeling
A
Taking a ride
Am
Chance on my side
G#m
I can't wait
F#m
  So far so great


Interlude:
e|---------0-2--3--2--0-2-0-|
B|-0--3--0------------------|
G|--------------------------|
D|--------------------------|
A|--------------------------|
E|--------------------------|


Verse 2:
Em            C
Might need to wing it
 D          Am
Still gonna bring it
Em        C
Not gonna sink low
D          Am
I'm going swimming
Em            C
Swing for the fences
 D
Sky's not the
Am      C   B
limit today Yeeeaah


(Repeat Chorus)


Bridge:
C#m        G#/C
  Everyone says don't
         A
get your hopes up
          Am
Learn the ropes and
F#/Bb B   G#/C C#m
climb the lad--der
              G#/C
I know in the end that just
      A
being here is the best
       B               Em C D Am
And it only gets better
             Em    C B
it only gets better


(Repeat Chorus)


Outro:
A         B
  I can't wait
          Em-- x2 Em(hold)
So far so great
comments
We did not receive enough feedback on this tab! Please rate:
1 2 3 4 5
I want to post or [tab]
guest
You may want to rate the tab now too:
select rating
Please do not post tabs as comments. Select "correction" instead!