Oops, an error
Loading. Please wait.

Here We Go Again Tab

ver1
ver1

Intro

Album

Whole song

Interactive

More versions @911Tabs.com
43,656 views 27 this week
3 commentsread comments
1 2 3 4 5
excellent!
x 6
Autoscroll
+/-
esc
set tempo
stop
Contributor
Hey! There's an official Ultimate Guitar app which is ideal
for learning songs when you're away from computer. Get the app
WARNING: You are trying to view
                                    content from Ultimate-Guitar.com
                                    in an unauthorized application,
                                    which is prohibited.

                                    Please use an official Ultimate
                                    Guitar Tabs application for iPhone,
                                    iPad or Android to access legitimate
                                    chords, guitar, bass, and drum tabs
                                    from Ultimate-Guitar.com database.

                                    Type "ultimate guitar tabs" in Apple
                                    App Store's or Android Market's
                                    search to find the application.
-------------------------------------------------------------------------------
			     HERE WE GO AGAIN - DEMI LOVATO
-------------------------------------------------------------------------------


Tabbed by:  x strawberrykiss x
Email: talitha@f2s.com


Tuning: standard :D




	INTRO:

e|---------------------------------------------------------------------------|
B|---------------------------------------------------------------------------|
G|------/10---------------------------/10------------------------------------|
D|-----------10----------------------------10--------------------------------|
A|----------------12~--10----10----------------12~--10----10-----------------|
E|------------------------13---------------------------13--------------------|

e|---------------------------------------------------------------------------|
B|--------------/10-------------------/11--10--------------10----------------|
G|------/10--12-----12--10--12-----------------12--10--12-----10\------------|
D|---------------------------------------------------------------------------|
A|---------------------------------------------------------------------------|
E|---------------------------------------------------------------------------|


	VERSE 1:

e|---------------------------------------------------------------------------|
B|---------------------------------------------------------------------------|
G|---------------------------------------------------------------------------|
D|------5-----7-----8-----7-----5-7------------5-----7-----8-----7-----5-7---|
A|--8-8---8-8---8-8---8-8---8-8------------8-8---8-8---8-8---8-8---8-8-------|
E|---------------------------------------------------------------------------|

e|---------------------------------------------------------------------------|
B|---------------------------------------------------------------------------|
G|---------------------------------------------------------------------------|
D|------5-----7-----8-----7-----5-7------------5-----7-----8-----7----5-7----|
A|--5-5---5-5---5-5---5-5---5-5----------------------------------------------|
E|-----------------------------------------6-6---6-6---6-6---6-6---6-6-------|


e|---------------------------------------------------------------------------|
B|---------------------------------------------------------------------------|
G|---------------------------------------------------------------------------|
D|------5-----7-----8-----7-----5-7------------5-----7-----8-----7-----5-7---|
A|--8-8---8-8---8-8---8-8---8-8------------8-8---8-8---8-8---8-8---8-8-------|
E|---------------------------------------------------------------------------|

e|---------------------------------------------------------------------------|
B|---------------------------------------------------------------------------|
G|---------------------------------------------------------------------------|
D|------5-----7-----8-----7-----5-7------------------------------------------|
A|--5-5---5-5---5-5---5-5---5-5----------------------------------------------|
E|---------------------------------------------------------------------------|
         
e|---------------------------------------------------------------------------|
B|---------------------------------------------------------------------------|
G|---------------------------------------------------------------------------|
D|----8-8--8-8------5-5--5-5------8-8--8-8---------8--8---8--8----8/---------|
A|----8-8--8-8—x4---5-5--5-5—x4---8-8--8-8—x4------8--8---8--8----8/---------|
E|----6-6--6-6------3-3--3-3------6-6--6-6---------6--6---6--6----6/---------|




CHORUS:


e|---------------------------------------------------------------------------|
B|---------------------------------------------------------------------------|
G|------------------------------------5-5-x-x---5-5-x-x ---5-5-x-x---5-5-x-x-|
D|--3-3--3-3--3-3-3--3-3-3--3--3--3---5-5-x-x---5-5-x-x ---5-5-x-x---5-5-x-x-|
A|--3-3--3-3--3-3-3--3-3-3--3--3--3---3-3-x-x---3-3-x-x ---3-3-x-x---3-3-x-x-|
E|--1-1--1-1--1-1-1--1-1-1--1--1--1------------------------------------------|


e|---------------------------------------------------------------------------|
B|---------------------------------------------------------------------------|
G|---------------------------------------------------------------------------|
D|--5-5--5-5--5-5-5--5-5-5--5--5--5---8-x-x--8-x-x--8-x-x--8-x-x--8-8-8-8----|
A|--5-5--5-5--5-5-5--5-5-5--5--5--5---8-x-x--8-x-x--8-x-x--8-x-x--8-8-8-8----|
E|--3-3--3-3--3-3-3--3-3-3--3--3--3---6-x-x--6-x-x--6-x-x--6-x-x--6-6-6-6----|


e|---------------------------------------------------------------------------|
B|---------------------------------------------------------------------------|
G|------------------------------------5-5-x-x---5-5-x-x ---5-5-x-x---5-5-x-x-|
D|--3-3--3-3--3-3-3--3-3-3--3--3--3---5-5-x-x---5-5-x-x ---5-5-x-x---5-5-x-x-|
A|--3-3--3-3--3-3-3--3-3-3--3--3--3---3-3-x-x---3-3-x-x ---3-3-x-x---3-3-x-x-|
E|--1-1--1-1--1-1-1--1-1-1--1--1--1------------------------------------------|


e|---------------------------------------------------------------------------|
B|---------------------------------------------------------------------------|
G|---------------------------------------------------------------------------|
D|--5-5--5-5--5-5-5--5-5-5--5--5--5---8-x-x--8-x-x--8-x-x--8-x-x--8-8-8-8----|
A|--5-5--5-5--5-5-5--5-5-5--5--5--5---8-x-x--8-x-x--8-x-x--8-x-x--8-8-8-8----|
E|--3-3--3-3--3-3-3--3-3-3--3--3--3---6-x-x--6-x-x--6-x-x--6-x-x--6-6-6-6----|



       VERSE 2:

e|---------------------------------------------------------------------------|
B|---------------------------------------------------------------------------|
G|---------------------------------------------------------------------------|
D|------5-----7-----8-----7-----5-7------------5-----7-----8-----7-----5-7---|
A|--8-8---8-8---8-8---8-8---8-8------------8-8---8-8---8-8---8-8---8-8-------|
E|---------------------------------------------------------------------------|

e|---------------------------------------------------------------------------|
B|---------------------------------------------------------------------------|
G|---------------------------------------------------------------------------|
D|------5-----7-----8-----7-----5-7------------5-----7-----8-----7----5-7----|
A|--5-5---5-5---5-5---5-5---5-5----------------------------------------------|
E|-----------------------------------------6-6---6-6---6-6---6-6---6-6-------|


e|---------------------------------------------------------------------------|
B|---------------------------------------------------------------------------|
G|---------------------------------------------------------------------------|
D|------5-----7-----8-----7-----5-7------------5-----7-----8-----7-----5-7---|
A|--8-8---8-8---8-8---8-8---8-8------------8-8---8-8---8-8---8-8---8-8-------|
E|---------------------------------------------------------------------------|

e|---------------------------------------------------------------------------|
B|---------------------------------------------------------------------------|
G|---------------------------------------------------------------------------|
D|------5-----7-----8-----7-----5-7------------------------------------------|
A|--5-5---5-5---5-5---5-5---5-5----------------------------------------------|
E|---------------------------------------------------------------------------|
         
e|---------------------------------------------------------------------------|
B|---------------------------------------------------------------------------|
G|---------------------------------------------------------------------------|
D|----8-8--8-8------5-5--5-5------8-8--8-8---------8--8---8--8----8/---------|
A|----8-8--8-8—x4---5-5--5-5—x4---8-8--8-8—x4------8--8---8--8----8/---------|
E|----6-6--6-6------3-3--3-3------6-6--6-6---------6--6---6--6----6/---------|




CHORUS:


e|---------------------------------------------------------------------------|
B|---------------------------------------------------------------------------|
G|------------------------------------5-5-x-x---5-5-x-x ---5-5-x-x---5-5-x-x-|
D|--3-3--3-3--3-3-3--3-3-3--3--3--3---5-5-x-x---5-5-x-x ---5-5-x-x---5-5-x-x-|
A|--3-3--3-3--3-3-3--3-3-3--3--3--3---3-3-x-x---3-3-x-x ---3-3-x-x---3-3-x-x-|
E|--1-1--1-1--1-1-1--1-1-1--1--1--1------------------------------------------|


e|---------------------------------------------------------------------------|
B|---------------------------------------------------------------------------|
G|---------------------------------------------------------------------------|
D|--5-5--5-5--5-5-5--5-5-5--5--5--5---8-x-x--8-x-x--8-x-x--8-x-x--8-8-8-8----|
A|--5-5--5-5--5-5-5--5-5-5--5--5--5---8-x-x--8-x-x--8-x-x--8-x-x--8-8-8-8----|
E|--3-3--3-3--3-3-3--3-3-3--3--3--3---6-x-x--6-x-x--6-x-x--6-x-x--6-6-6-6----|


e|---------------------------------------------------------------------------|
B|---------------------------------------------------------------------------|
G|------------------------------------5-5-x-x---5-5-x-x ---5-5-x-x---5-5-x-x-|
D|--3-3--3-3--3-3-3--3-3-3--3--3--3---5-5-x-x---5-5-x-x ---5-5-x-x---5-5-x-x-|
A|--3-3--3-3--3-3-3--3-3-3--3--3--3---3-3-x-x---3-3-x-x ---3-3-x-x---3-3-x-x-|
E|--1-1--1-1--1-1-1--1-1-1--1--1--1------------------------------------------|


e|---------------------------------------------------------------------------|
B|---------------------------------------------------------------------------|
G|---------------------------------------------------------------------------|
D|--5-5--5-5--5-5-5--5-5-5--5--5--5---8-x-x--8-x-x--8-x-x--8-x-x--8-8-8-8----|
A|--5-5--5-5--5-5-5--5-5-5--5--5--5---8-x-x--8-x-x--8-x-x--8-x-x--8-8-8-8----|
E|--3-3--3-3--3-3-3--3-3-3--3--3--3---6-x-x--6-x-x--6-x-x--6-x-x--6-6-6-6----|



       BRIDGE:


e|---------------------------------------------------------------------------|
B|---------------------------------------------------------------------------|
G|----7-7-7---9-9-9---10-10-10---14-14-14---12-12---10-10--------------------|
D|---------------------------------------------------------------------------|
A|----5-5-5---7-7-7----8--8--8---12-12-12---10-10----8--8--------------------|
E|---------------------------------------------------------------------------|

e|---------------------------------------------------------------------------|
B|---------------------------------------------------------------------------|
G|----7-7-7---9-9-9---10-10-10---14-14-14---12-12---10-10--------------------|
D|---------------------------------------------------------------------------|
A|----5-5-5---7-7-7----8--8--8---12-12-12---10-10----8--8--------------------|
E|---------------------------------------------------------------------------|


e|---------------------------------------------------------------------------|
B|----------------------------10--10--10--13--13--13--13--13--13--13---------|
G|----10--10--10--12--12--12-------------------------------------------------|
D|---------------------------------------------------------------------------|
A|---------------------------------------------------------------------------|
E|---------------------------------------------------------------------------|

e|--------------------------------------------13--13--13--13-----------------|
B|----10--10--10--11--11--11--13--13--13------13--13--13--13-----------------|
G|---------------------------------------------------------------------------|
D|---------------------------------------------------------------------------|
A|---------------------------------------------------------------------------|
E|---------------------------------------------------------------------------



       VERSE 3:


e|---------------------------------------------------------------------------|
B|---------------------------------------------------------------------------|
G|---------------------------------------------------------------------------|
D|------5-----7-----8-----7-----5-7------------5-----7-----8-----7-----5-7---|
A|--8-8---8-8---8-8---8-8---8-8------------8-8---8-8---8-8---8-8---8-8-------|
E|---------------------------------------------------------------------------|

e|---------------------------------------------------------------------------|
B|---------------------------------------------------------------------------|
G|---------------------------------------------------------------------------|
D|------5-----7-----8-----7-----5-7------------5-----7-----8-------8-8---8-8-|
A|--5-5---5-5---5-5---5-5---5-5------------------------------------8-8---8-8-|
E|-----------------------------------------6-6---6-6---6-6---6-6---6-6---6-6-|



CHORUS: 


e|---------------------------------------------------------------------------|
B|---------------------------------------------------------------------------|
G|------------------------------------5-5-x-x---5-5-x-x ---5-5-x-x---5-5-x-x-|
D|--3-3--3-3--3-3-3--3-3-3--3--3--3---5-5-x-x---5-5-x-x ---5-5-x-x---5-5-x-x-|
A|--3-3--3-3--3-3-3--3-3-3--3--3--3---3-3-x-x---3-3-x-x ---3-3-x-x---3-3-x-x-|
E|--1-1--1-1--1-1-1--1-1-1--1--1--1------------------------------------------|


e|---------------------------------------------------------------------------|
B|---------------------------------------------------------------------------|
G|---------------------------------------------------------------------------|
D|--5-5--5-5--5-5-5--5-5-5--5--5--5---8-x-x--8-x-x--8-x-x--8-x-x--8-8-8-8----|
A|--5-5--5-5--5-5-5--5-5-5--5--5--5---8-x-x--8-x-x--8-x-x--8-x-x--8-8-8-8----|
E|--3-3--3-3--3-3-3--3-3-3--3--3--3---6-x-x--6-x-x--6-x-x--6-x-x--6-6-6-6----|

e|---------------------------------------------------------------------------|
B|---------------------------------------------------------------------------|
G|------------------------------------5-5-x-x---5-5-x-x ---5-5-x-x---5-5-x-x-|
D|--3-3--3-3--3-3-3--3-3-3--3--3--3---5-5-x-x---5-5-x-x ---5-5-x-x---5-5-x-x-|
A|--3-3--3-3--3-3-3--3-3-3--3--3--3---3-3-x-x---3-3-x-x ---3-3-x-x---3-3-x-x-|
E|--1-1--1-1--1-1-1--1-1-1--1--1--1------------------------------------------|


e|---------------------------------------------------------------------------|
B|---------------------------------------------------------------------------|
G|---------------------------------------------------------------------------|
D|--5-5--5-5--5-5-5--5-5-5--5--5--5---8-x-x--8-x-x--8-x-x--8-x-x--8-8-8-8----|
A|--5-5--5-5--5-5-5--5-5-5--5--5--5---8-x-x--8-x-x--8-x-x--8-x-x--8-8-8-8----|
E|--3-3--3-3--3-3-3--3-3-3--3--3--3---6-x-x--6-x-x--6-x-x--6-x-x--6-6-6-6----|



       OUTRO:

e|---------------------------------------------------------------------------|
B|---------------------------------------------------------------------------|
G|---------------------------------------5-5-5-5-5-5-5-5-5-5-5-5-5-5-5-5-----|
D|---3-3-3-3-3-3-3-3-3-3-3-3-3-3-3-3-----5-5-5-5-5-5-5-5-5-5-5-5-5-5-5-5-----|
A|---3-3-3-3-3-3-3-3-3-3-3-3-3-3-3-3-----3-3-3-3-3-3-3-3-3-3-3-3-3-3-3-3-----|
E|---1-1-1-1-1-1-1-1-1-1-1-1-1-1-1-1-----------------------------------------|


e|---------------------------------------------------------------------------|
B|---------------------------------------------------------------------------|
G|---------------------------------------------------------------------------|
D|--5-5-5-5-5-5-5-5-5-5-5-5-5-5-5-5---8-x-x--8-x-x--8-x-x--8-x-x--8-8-8-8----|
A|--5-5-5-5-5-5-5-5-5-5-5-5-5-5-5-5---8-x-x--8-x-x--8-x-x--8-x-x--8-8-8-8----|
E|--3-3-3-3-3-3-3-3-3-3-3-3-3-3-3-3---6-x-x--6-x-x--6-x-x--6-x-x--6-6-6-6----|


e|---------------------------------------------------------------------------|
B|---------------------------------------------------------------------------|
G|------/10---------------------------/10------------------------------------|
D|-----------10----------------------------10--------------------------------|
A|----------------12~--10----10----------------12~--10----10~----------------|
E|------------------------13---------------------------13--------------------|


| /  slide up
| \  slide down
| h  hammer-on
| p  pull-off
| ~  vibrato
| +  harmonic
| x  Mute note


....oh and special thanks to 'Krispiss' for the amazing tutorial :D
comments
print report bad tab
3 comments total.
0 reply
StrawberryKiss! wrote on July 8 2009, 04:41 am

Check out the video here:
http://www.youtube.com/watch?v=NndjBGWandA

0 reply
SouthernPunk777 wrote on July 21 2009, 12:03 pm

of course no solo....guess i'll tab it l8r

0 reply
94jose94 wrote on January 5 2010, 09:00 pm

can you put a tab GuitarPro?

I want to post or [tab]
guest
You may want to rate the tab now too:
select rating
Please do not post tabs as comments. Select "correction" instead!