Oops, an error
Loading. Please wait.

Warrior Tab

3,572 views 18 this week
no commentswrite comment
1 2 3 4 5
excellent!
x 4
Autoscroll
+/-
esc
set tempo
stop
Contributor
Difficulty
intermediate
WARNING: You are trying to view
                                    content from Ultimate-Guitar.com
                                    in an unauthorized application,
                                    which is prohibited.

                                    Please use an official Ultimate
                                    Guitar Tabs application for iPhone,
                                    iPad or Android to access legitimate
                                    chords, guitar, bass, and drum tabs
                                    from Ultimate-Guitar.com database.

                                    Type "ultimate guitar tabs" in Apple
                                    App Store's or Android Market's
                                    search to find the application.
Right okay so this is my first ever tab. i heard this song on demi lovato's new album
and loved it straight away however the only online record of how to play it was in chords
which didnt capture the beauty of the song, so now i sound like someone obsessed, but i 
hope you find this easy to follow and let me know what you think :) (btw i couldnt fit the
words to the tab but it's quite obvious if you are familiar with the song) enjoy!

3--3--3--3--3--3--3--3--3--3--3--3--3--3--3--3--3--3--3--3--|
5--5--5--5--3--3--3--3--3--3--5--5--5--5--3--3--3--3--3--3--|
-4--4--4--4--5--5--4--4--4--4--4--4--4--4--5--5--4--4--4--4-|
------------------0-----------------------0-----------------|
------------------------------------------------------------|
0-----------------------------0-----------------------------|

   This is a story that I have never told
3--3--3--3--3--3--3--3--3--3-|
5--5--5--5--3--3--3--3--3--3-|
-4--4--4--4--5--5--4--4--4---|
------------------0----------|
-----------------------------|
0----------------------------|

   I gotta get this off my chest and let it go
3--3--3--3--3--3--3--3--3--3-|
5--5--5--5--3--3--3--3--3--3-|
-4--4--4--4--5--5--4--4--4---|
------------------0----------|
-----------------------------|
0----------------------------|

   I need to take back the light inside you stole
3--3--3--3--3--3--3--3--3--3-|
5--5--5--5--3--3--3--3--3--3-|
-4--4--4--4--5--5--4--4--4---|
------------------0----------|
-----------------------------|
0----------------------------|

you're a criminal and you steal like you're a pro
3--3--3--3--3--3--3--3--3--3-|
5--5--5--5--3--3--3--3--3--3-|
-4--4--4--4--5--5--4--4--4---|
------------------0----------|
-----------------------------|
0----------------------------|

All the pain and the truth, I wear like a battle wound
3--3--3--3--3-                0--0--0--0--|
3--3--3--3--3-                1--1--1--1--|
-5--5--5--5--5                22-22-22-22-|
--------------                ------------|
--------------                0-----------|
--------------                ------------|

so ashamed so confused, I was broken and bruised
3--3--3--3--3-                2--2--2--2-|
3--3--3--3--3-                3--3--3--3-|
-5--5--5--5--5                2--2--2--2-|
--------------                0----------|
--------------                -----------|
--------------                -----------|

              G            Dm
And now I'm a Warrior, now I've got thicker skin,
      Am           Cm                       D
I'm a warrior, I'm stronger than I've ever been,
       G          Dm
and my armour, is made of steel, you cant get in,
    Am           Cm                 D    G
I'm warrior, and you can never hurt me again


   Out of the ashes, you're burning like a fire
3--3--3--3--3--3--3--3--3--3-|
5--5--5--5--3--3--3--3--3--3-|
-4--4--4--4--5--5--4--4--4---|
------------------0----------|
-----------------------------|
0----------------------------|

   you can save your apologies you're nothing but a liar
3--3--3--3--3--3--3--3--3--3-|
5--5--5--5--3--3--3--3--3--3-|
-4--4--4--4--5--5--4--4--4---|
------------------0----------|
-----------------------------|
0----------------------------|

   I've got shame and i've got scars, that I will never show
3--3--3--3--3--3--3--3--3--3-|
5--5--5--5--3--3--3--3--3--3-|
-4--4--4--4--5--5--4--4--4---|
------------------0----------|
-----------------------------|
0----------------------------|

I'm a survivor in more ways than you know, cause...
3--3--3--3--3--3--3--3--3--3-|
5--5--5--5--3--3--3--3--3--3-|
-4--4--4--4--5--5--4--4--4---|
------------------0----------|
-----------------------------|
0----------------------------|

All the pain and the truth, I wear like a battle wound
3--3--3--3--3-                0--0--0--0--|
3--3--3--3--3-                1--1--1--1--|
-5--5--5--5--5                22-22-22-22-|
--------------                ------------|
--------------                0-----------|
--------------                ------------|

so ashamed so confused, I'm not broken nor bruised
3--3--3--3--3-              2--2--2--2-|
3--3--3--3--3-              3--3--3--3-|
-5--5--5--5--5              2--2--2--2-|
--------------              0----------|
--------------              -----------|
--------------              -----------|

              G            Dm
And now I'm a Warrior, now I've got thicker skin,
      Am           Cm                       D
I'm a warrior, I'm stronger than I've ever been,
       G          Dm
and my armour, is made of steel, you cant get in,
    Am           Cm                 D
I'm warrior, and you can never hurt me

*** Em                                  Am/C
There's a part of me I cant get back, A little girl grew up too fast,
          3--3--3--3--3-                0--0--0--0--|
          3--3--3--3--3-                1--1--1--1--|
          -5--5--5--5--5                22-22-22-22-|
          --------------                ------------|
          --------------                0-----------|
          --------------                ------------|

G                                        D
All it took was once, i'll never be the same,
3--3--3--3--3-              2--2--2--2--|
3--3--3--3--3-              3--3--3--3--|
-5--5--5--5--5              2--2--2--2--|
--------------              -0--0--0--0-|
--------------              ------------|
--------------              ------------|

Em                                 Am/C
Now I'm taking back my life today, Nothing left that you can say,
          3--3--3--3--3-                0--0--0--0--|
          3--3--3--3--3-                1--1--1--1--|
          -5--5--5--5--5                22-22-22-22-|
          --------------                ------------|
          --------------                0-----------|
          --------------                ------------|


G                                             D ***
Cause you were never gonna take the blame anyway
3--3--3--3--3-                        2--2--2--2--|
3--3--3--3--3-                        3--3--3--3--|
-5--5--5--5--5                        2--2--2--2--|
--------------                        -0--0--0--0-|
--------------                        ------------|
--------------                        ------------|

~G~                   ~Dm~
Now I'm a Warrior, now I've got thicker skin,
     ~Am~          Cm                     D
I'm a warrior, I'm stronger than I've ever been,
       G          Dm
and my armour, is made of steel, you cant get in,
    Am           Cm                 D    G
I'm warrior, and you can never hurt me again,

Dm           Am
noo ooo yeah yeah
~Cm~                  ~D~  ~G~
now you can never hurt me again.

*** in this section you might want to play around with strumming rather than the soft
plucking of stings ***
~CHORD~ -> strum once or play quietly
comments
print report bad tab
I want to post or [tab]
guest
You may want to rate the tab now too:
select rating
Please do not post tabs as comments. Select "correction" instead!