Oops, an error
Loading. Please wait.

Dead Flowers Tab

ver1
ver1

Whole song

Interactive

More versions @911Tabs.com
5,617 views 24 this week
no commentswrite comment
1 2 3 4 5
excellent!
x 4
Autoscroll
+/-
esc
set tempo
stop
Contributor
Difficulty
Tuning
intermediate
B F# B E G# C#
WARNING: You are trying to view
                                    content from Ultimate-Guitar.com
                                    in an unauthorized application,
                                    which is prohibited.

                                    Please use an official Ultimate
                                    Guitar Tabs application for iPhone,
                                    iPad or Android to access legitimate
                                    chords, guitar, bass, and drum tabs
                                    from Ultimate-Guitar.com database.

                                    Type "ultimate guitar tabs" in Apple
                                    App Store's or Android Market's
                                    search to find the application.
----------------------------------------------------------------------------
                               Dead Flowers
                               Demon Hunter
----------------------------------------------------------------------------

Hello. This song is very emotional and I love how it really hits the heart. The guitar 
solo is fun and fits the song perfectly. Enjoy!

Username: dkm817 (same on X box live)
Youtube Cover: http://www.youtube.com/watch?v=mhHSzwtfKa0
Email: guitardrums@rockfan.com

Guitar 1 Rhythmic     (B F# B E G# C#)
Guitar 2 Lead         (B F# B E G# C#)


Tab Guide...

===================================================================
(end of measures)

===================================================================
===================================================================
(end of parts)

===================================================================
===================================================================
===================================================================
(end of song)

(If there is a “continued” it is because the numbers could not
fit on 1 line.)


Intro

(x2)

Guitar 1
C#-----------------------------------------------------------------|
G#-----------------------------------------------------------------|
E -----------------------------------------------------------------|
B -----------------------------------------------------------------|
F#-----------------------------------------------------------------|
B -5---5---5---5---5---5---5---5---5---5---5---5---5---5---5---5---|

Guitar 2 (Echo Effect)
C#-----------------22~~~~~-20~~~~~~~~~~~~~~~~~~~~~-22~~~~~-18~~~~~~-|
G#------------------------------------------------------------------|
E ------------------------------------------------------------------|
B ------------------------------------------------------------------|
F#------------------------------------------------------------------|
B ------------------------------------------------------------------|

===================================================================

Guitar 1
C#-----------------------------------------------------------------|
G#-----------------------------------------------------------------|
E -----------------------------------------------------------------|
B -----------------------------------------------------------------|
F#-----------------------------------------------------------------|
B -3---3---3---3---3---3---3---3---3---3---3---3---3---3---3---3---|

Guitar 2
C#-~~~~~~~~~~~~~~~-22~~~~~-20~~~~~~~~~~~~~~~~~~~~~-22~~~~~-18~~~~~~-|
G#------------------------------------------------------------------|
E ------------------------------------------------------------------|
B ------------------------------------------------------------------|
F#------------------------------------------------------------------|
B ------------------------------------------------------------------|

===================================================================

Guitar 1
C#-----------------------------------------------------------------|
G#-----------------------------------------------------------------|
E -----------------------------------------------------------------|
B -----------------------------------------------------------------|
F#-----------------------------------------------------------------|
B -8---8---8---8---8---8---8---8---8---8---8---8---8---8---8---8---|

Guitar 2
C#-~~~~~~~~~~~~~~~-22~~~~~-20~~~~~~~~~~~~~~~~~~~~~-22~~~~~----------|
G#---------------------------------------------------------20~~~~~~-|
E ------------------------------------------------------------------|
B ------------------------------------------------------------------|
F#------------------------------------------------------------------|
B ------------------------------------------------------------------|

===================================================================

Guitar 1
C#-----------------------------------------------------------------|
G#-----------------------------------------------------------------|
E -----------------------------------------------------------------|
B -----------------------------------------------------------------|
F#-----------------------------------------------------------------|
B -1---1---1---1---1---1---1---1---1---1---1---1---1---1---1---1---|

Guitar 2
C#-----------------------------------------------------------------|
G#-~~~~~~~~~~~~~~~~~~~~~~~~~~~~~~~---------------------------------|
E -----------------------------------------------------------------|
B -----------------------------------------------------------------|
F#-----------------------------------------------------------------|
B -----------------------------------------------------------------|

===================================================================
===================================================================


Verse 1

(x2)

Guitar 1
C#-----------------------------------------------------------------|
G#-----------------------------------------------------------------|
E -----------------------------------------------------------------|
B -----------------------------------------------------------------|
F#-----------------------------------------------------------------|
B -5---5---5---5---5---5---5---5---5---5---5---5---5---5---5---5---|

Guitar 2
C#-----------------22~~~~~-20~~~~~~~~~~~~~~~~~~~~~-22~~~~~-18~~~~~~-|
G#------------------------------------------------------------------|
E ------------------------------------------------------------------|
B ------------------------------------------------------------------|
F#------------------------------------------------------------------|
B ------------------------------------------------------------------|

===================================================================

Guitar 1
C#-----------------------------------------------------------------|
G#-----------------------------------------------------------------|
E -----------------------------------------------------------------|
B -----------------------------------------------------------------|
F#-----------------------------------------------------------------|
B -3---3---3---3---3---3---3---3---3---3---3---3---3---3---3---3---|

Guitar 2
C#-~~~~~~~~~~~~~~~-22~~~~~-20~~~~~~~~~~~~~~~~~~~~~-22~~~~~-18~~~~~~-|
G#------------------------------------------------------------------|
E ------------------------------------------------------------------|
B ------------------------------------------------------------------|
F#------------------------------------------------------------------|
B ------------------------------------------------------------------|

===================================================================

Guitar 1
C#-----------------------------------------------------------------|
G#-----------------------------------------------------------------|
E -----------------------------------------------------------------|
B -----------------------------------------------------------------|
F#-----------------------------------------------------------------|
B -8---8---8---8---8---8---8---8---8---8---8---8---8---8---8---8---|

Guitar 2
C#-~~~~~~~~~~~~~~~-22~~~~~-20~~~~~~~~~~~~~~~~~~~~~-22~~~~~----------|
G#---------------------------------------------------------20~~~~~~-|
E ------------------------------------------------------------------|
B ------------------------------------------------------------------|
F#------------------------------------------------------------------|
B ------------------------------------------------------------------|

===================================================================

Guitar 1
C#-----------------------------------------------------------------|
G#-----------------------------------------------------------------|
E -----------------------------------------------------------------|
B -----------------------------------------------------------------|
F#-----------------------------------------------------------------|
B -1---1---1---1---1---1---1---1---1---1---1---1---1---1---1---1---|

Guitar 2
C#-----------------------------------------------------------------|
G#-~~~~~~~~~~~~~~~~~~~~~~~~~~~~~~~---------------------------------|
E -----------------------------------------------------------------|
B -----------------------------------------------------------------|
F#-----------------------------------------------------------------|
B -----------------------------------------------------------------|

===================================================================
===================================================================


Pre Chorus

Guitar 1
C#-----------------------------------------------------------------|
G#-----------------------------------------------------------------|
E ---------------------------------7---7---7---7---7---7---7---7---|
B -5---5---5---5---5---5---5---5---7---7---7---7---7---7---7---7---|
F#-5---5---5---5---5---5---5---5---5---5---5---5---5---5---5---5---|
B -5---5---5---5---5---5---5---5-----------------------------------|

Guitar 2
C#-----------------------------------------------------------------|
G#-8---8---8---8---8---8---8---8---10--10--10--10--11--11--11--11--|
E -x---x---x---x---x---x---x---x---x---x---x---x---x---x---x---x---|
B -5---5---5---5---5---5---5---5---7---7---7---7---8---8---8---8---|
F#-----------------------------------------------------------------|
B -----------------------------------------------------------------|

===================================================================

Guitar 1
C#-----------------------------------------------------------------|
G#-----------------------------------------------------------------|
E -----------------------------------------------------------------|
B -1---1---1---1---1---1---1---1---1---1---1---1---1---1---1---1---|
F#-1---1---1---1---1---1---1---1---1---1---1---1---1---1---1---1---|
B -1---1---1---1---1---1---1---1---1---1---1---1---1---1---1---1---|

Guitar 2
C#-----------------------------------------------------------------|
G#---------------------------------11--11--11--11--13--13--13--13--|
E -8---8---8---8---8---8---8---8---x---x---x---x---x---x---x---x---|
B -x---x---x---x---x---x---x---x---8---8---8---8---10--10--10--10--|
F#-6---6---6---6---6---6---6---6-----------------------------------|
B -----------------------------------------------------------------|

===================================================================

Guitar 1
C#-----------------------------------------------------------------|
G#-----------------------------------------------------------------|
E -----------------------------------------------------------------|
B -3---3---3---3---3---3---3---3---3---3---3---3---3---3---3---3---|
F#-3---3---3---3---3---3---3---3---3---3---3---3---3---3---3---3---|
B -3---3---3---3---3---3---3---3---3---3---3---3---3---3---3---3---|

Guitar 2
C#-----------------------------------------------------------------|
G#-10--10--10--10--10--10--10--10--10--10--10--10--10--10--10--10--|
E -x---x---x---x---x---x---x---x---x---x---x---x---x---x---x---x---|
B -7---7---7---7---7---7---7---7---7---7---7---7---7---7---7---7---|
F#-----------------------------------------------------------------|
B -----------------------------------------------------------------|

===================================================================

Guitar 1
C#-----------------------------------------------------------------|
G#-----------------------------------------------------------------|
E -----------------------------------------------------------------|
B -3---3---3---3---3---3---3---3---3---3---3---3---3---3---3---3---|
F#-3---3---3---3---3---3---3---3---3---3---3---3---3---3---3---3---|
B -3---3---3---3---3---3---3---3---3---3---3---3---3---3---3---3---|

Guitar 2
C#-----------------------------------------------------------------|
G#-13--13--13--13--13--13--13--13--13--13--13--13--13--13--13--13--|
E -x---x---x---x---x---x---x---x---x---x---x---x---x---x---x---x---|
B -10--10--10--10--10--10--10--10--10--10--10--10--10--10--10--10--|
F#-----------------------------------------------------------------|
B -----------------------------------------------------------------|

===================================================================
===================================================================


Chorus 1

Guitar 1
C#-----------------------------------------------------------------|
G#-----------------------------------------------------------------|
E ---------------------------------3~~~~~~-3~~~~~~-3~~~~~~-3~~~~~~-|
B -1~~~~~~-1~~~~~~-1~~~~~~-1~~~~~~-3~~~~~~-3~~~~~~-3~~~~~~-3~~~~~~-|
F#-1~~~~~~-1~~~~~~-1~~~~~~-1~~~~~~-1~~~~~~-1~~~~~~-1~~~~~~-1~~~~~~-|
B -1~~~~~~-1~~~~~~-1~~~~~~-1~~~~~~---------------------------------|

Guitar 2
C#-----------------------------------------------------------------|
G#---------------------------------11~~~~~-11~~~~~-11~~~~~-11~~~~~-|
E -8~~~~~~-8~~~~~~-8~~~~~~-8~~~~~~-x-------x-------x-------x-------|
B -x-------x-------x-------x-------8~~~~~~-8~~~~~~-8~~~~~~-8~~~~~~-|
F#-6~~~~~~-6~~~~~~-6~~~~~~-6~~~~~~---------------------------------|
B -----------------------------------------------------------------|

===================================================================

Guitar 1
C#-----------------------------------------------------------------|
G#-----------------------------------------------------------------|
E -----------------------------------------------------------------|
B -3~~~~~~-3~~~~~~-3~~~~~~-3~~~~~~-3~~~~~~-3~~~~~~-5~~~~~~-5~~~~~~-|
F#-3~~~~~~-3~~~~~~-3~~~~~~-3~~~~~~-3~~~~~~-3~~~~~~-5~~~~~~-5~~~~~~-|
B -3~~~~~~-3~~~~~~-3~~~~~~-3~~~~~~-3~~~~~~-3~~~~~~-5~~~~~~-5~~~~~~-|

Guitar 2
C#-----------------------------------------------------------------|
G#-6~~~~~~-6~~~~~~-6~~~~~~-6~~~~~~-6~~~~~~-6~~~~~~-8~~~~~~-8~~~~~~-|
E -x-------x-------x-------x-------x-------x-------x-------x-------|
B -3~~~~~~-3~~~~~~-3~~~~~~-3~~~~~~-3~~~~~~-3~~~~~~-5~~~~~~-5~~~~~~-|
F#-----------------------------------------------------------------|
B -----------------------------------------------------------------|

===================================================================

Guitar 1
C#-----------------------------------------------------------------|
G#-----------------------------------------------------------------|
E ---------------------------------3~~~~~~-3~~~~~~-3~~~~~~-3~~~~~~-|
B -1~~~~~~-1~~~~~~-1~~~~~~-1~~~~~~-3~~~~~~-3~~~~~~-3~~~~~~-3~~~~~~-|
F#-1~~~~~~-1~~~~~~-1~~~~~~-1~~~~~~-1~~~~~~-1~~~~~~-1~~~~~~-1~~~~~~-|
B -1~~~~~~-1~~~~~~-1~~~~~~-1~~~~~~---------------------------------|

Guitar 2
C#-----------------------------------------------------------------|
G#---------------------------------11~~~~~-11~~~~~-11~~~~~-11~~~~~-|
E -8~~~~~~-8~~~~~~-8~~~~~~-8~~~~~~-x-------x-------x-------x-------|
B -x-------x-------x-------x-------8~~~~~~-8~~~~~~-8~~~~~~-8~~~~~~-|
F#-6~~~~~~-6~~~~~~-6~~~~~~-6~~~~~~---------------------------------|
B -----------------------------------------------------------------|

===================================================================

Guitar 1
C#-----------------------------------------------------------------|
G#-----------------------------------------------------------------|
E -------------------------------------------------5/--7~~~~~~~~~~-|
B -3~~~~~~-3~~~~~~-3~~~~~~-3~~~~~~-3~~~~~~-3~~~~~~-5/--7~~~~~~~~~~-|
F#-3~~~~~~-3~~~~~~-3~~~~~~-3~~~~~~-3~~~~~~-3~~~~~~-3/--5~~~~~~~~~~-|
B -3~~~~~~-3~~~~~~-3~~~~~~-3~~~~~~-3~~~~~~-3~~~~~~-----------------|

Guitar 2
C#-----------------------------------------------------------------|
G#-6~~~~~~-6~~~~~~-6~~~~~~-6~~~~~~-6~~~~~~-6~~~~~~-----------------|
E -x-------x-------x-------x-------x-------x-------5/--7~~~~~~~~~~-|
B -3~~~~~~-3~~~~~~-3~~~~~~-3~~~~~~-3~~~~~~-3~~~~~~-x/--x-----------|
F#-------------------------------------------------3/--5~~~~~~~~~~-|
B -----------------------------------------------------------------|

===================================================================

Guitar 1
C#-----------------------------------------------------------------|
G#-----------------------------------------------------------------|
E ---------------------------------3~~~~~~-3~~~~~~-3~~~~~~-3~~~~~~-|
B -1~~~~~~-1~~~~~~-1~~~~~~-1~~~~~~-3~~~~~~-3~~~~~~-3~~~~~~-3~~~~~~-|
F#-1~~~~~~-1~~~~~~-1~~~~~~-1~~~~~~-1~~~~~~-1~~~~~~-1~~~~~~-1~~~~~~-|
B -1~~~~~~-1~~~~~~-1~~~~~~-1~~~~~~---------------------------------|

Guitar 2
C#-----------------------------------------------------------------|
G#---------------------------------11~~~~~-11~~~~~-11~~~~~-11~~~~~-|
E -8~~~~~~-8~~~~~~-8~~~~~~-8~~~~~~-x-------x-------x-------x-------|
B -x-------x-------x-------x-------8~~~~~~-8~~~~~~-8~~~~~~-8~~~~~~-|
F#-6~~~~~~-6~~~~~~-6~~~~~~-6~~~~~~---------------------------------|
B -----------------------------------------------------------------|

===================================================================

Guitar 1
C#-----------------------------------------------------------------|
G#-----------------------------------------------------------------|
E -----------------------------------------------------------------|
B -0~~~~~~-0~~~~~~-0~~~~~~-0~~~~~~-5~~~~~~~~~~~~~~-3~~~~~~~~~~~~~~-|
F#-0~~~~~~-0~~~~~~-0~~~~~~-0~~~~~~-5~~~~~~~~~~~~~~-3~~~~~~~~~~~~~~-|
B -0~~~~~~-0~~~~~~-0~~~~~~-0~~~~~~-5~~~~~~~~~~~~~~-3~~~~~~~~~~~~~~-|

Guitar 2
C#-----------------------------------------------------------------|
G#---------------------------------8~~~~~~~~~~~~~~-10~~~~~~~~~~~~~-|
E -7~~~~~~-7~~~~~~-7~~~~~~-7~~~~~~-x---------------x---------------|
B -x-------x-------x-------x-------5~~~~~~~~~~~~~~-7~~~~~~~~~~~~~~-|
F#-5~~~~~~-5~~~~~~-5~~~~~~-5~~~~~~---------------------------------|
B -----------------------------------------------------------------|

===================================================================

Guitar 1
C#-----------------------------------------------------------------|
G#-----------------------------------------------------------------|
E ---------------------------------3~~~~~~-3~~~~~~-3~~~~~~-3~~~~~~-|
B -1~~~~~~-1~~~~~~-1~~~~~~-1~~~~~~-3~~~~~~-3~~~~~~-3~~~~~~-3~~~~~~-|
F#-1~~~~~~-1~~~~~~-1~~~~~~-1~~~~~~-1~~~~~~-1~~~~~~-1~~~~~~-1~~~~~~-|
B -1~~~~~~-1~~~~~~-1~~~~~~-1~~~~~~---------------------------------|

Guitar 2
C#-----------------------------------------------------------------|
G#-11~~~~~-11~~~~~-11~~~~~-11--10--11~~~~~-11~~~~~-11~~~~~-11/-6---|
E -x-------x-------x-------x---x---x-------x-------x-------x/--x---|
B -8~~~~~~-8~~~~~~-8~~~~~~-8---7---8~~~~~~-8~~~~~~-8~~~~~~-8/--3---|
F#-----------------------------------------------------------------|
B -----------------------------------------------------------------|

===================================================================

Guitar 1
C#-----------------------------------------------------------------|
G#-----------------------------------------------------------------|
E -----------------------------------------------------------------|
B -3~~~~~~-3~~~~~~-3~~~~~~-3~~~~~~-3~~~~~~-3~~~~~~-3~~~~~~-3~~~~~~-|
F#-3~~~~~~-3~~~~~~-3~~~~~~-3~~~~~~-3~~~~~~-3~~~~~~-3~~~~~~-3~~~~~~-|
B -3~~~~~~-3~~~~~~-3~~~~~~-3~~~~~~-3~~~~~~-3~~~~~~-3~~~~~~-3~~~~~~-|

Guitar 2
C#-----------------------------------------------------------------|
G#-6~~~~~~-6~~~~~~-6~~~~~~-6~~~~~~-6~~~~~~-6~~~~~~-6~~~~~~-6~~~~~~-|
E -x-------x-------x-------x-------x-------x-------x-------x-------|
B -3~~~~~~-3~~~~~~-3~~~~~~-3~~~~~~-3~~~~~~-3~~~~~~-3~~~~~~-3~~~~~~-|
F#-----------------------------------------------------------------|
B -----------------------------------------------------------------|

===================================================================
===================================================================


Verse 2

Guitar 1
C#------------------------------------------------------------------|
G#------------------------------------------------------------------|
E -----------------19~~~~~-17~~~~~~~~~~~~~~~~~~~~~-19~~~~~-15~~~~~~-|
B ------------------------------------------------------------------|
F#------------------------------------------------------------------|
B ------------------------------------------------------------------|

Guitar 2
C#-----------------22~~~~~-20~~~~~~~~~~~~~~~~~~~~~-22~~~~~-18~~~~~~-|
G#------------------------------------------------------------------|
E ------------------------------------------------------------------|
B ------------------------------------------------------------------|
F#------------------------------------------------------------------|
B ------------------------------------------------------------------|

===================================================================

Guitar 1
C#------------------------------------------------------------------|
G#------------------------------------------------------------------|
E -~~~~~~~~~~~~~~~-19~~~~~-17~~~~~~~~~~~~~~~~~~~~~-19~~~~~-15~~~~~~-|
B ------------------------------------------------------------------|
F#------------------------------------------------------------------|
B ------------------------------------------------------------------|

Guitar 2
C#-~~~~~~~~~~~~~~~-22~~~~~-20~~~~~~~~~~~~~~~~~~~~~-22~~~~~-18~~~~~~-|
G#------------------------------------------------------------------|
E ------------------------------------------------------------------|
B ------------------------------------------------------------------|
F#------------------------------------------------------------------|
B ------------------------------------------------------------------|

===================================================================

Guitar 1
C#------------------------------------------------------------------|
G#------------------------------------------------------------------|
E -~~~~~~~~~~~~~~~-19~~~~~-17~~~~~~~~~~~~~~~~~~~~~-19~~~~~----------|
B ---------------------------------------------------------17~~~~~~-|
F#------------------------------------------------------------------|
B ------------------------------------------------------------------|

Guitar 2
C#-~~~~~~~~~~~~~~~-22~~~~~-20~~~~~~~~~~~~~~~~~~~~~-22~~~~~----------|
G#---------------------------------------------------------20~~~~~~-|
E ------------------------------------------------------------------|
B ------------------------------------------------------------------|
F#------------------------------------------------------------------|
B ------------------------------------------------------------------|

===================================================================

Guitar 1
C#-----------------------------------------------------------------|
G#-----------------------------------------------------------------|
E -----------------------------------------------------------------|
B -~~~~~~~~~~~~~~~~~~~~~~~~~~~~~~~---------------------------------|
F#-----------------------------------------------------------------|
B -----------------------------------------------------------------|

Guitar 2
C#-----------------------------------------------------------------|
G#-~~~~~~~~~~~~~~~~~~~~~~~~~~~~~~~---------------------------------|
E -----------------------------------------------------------------|
B -----------------------------------------------------------------|
F#-----------------------------------------------------------------|
B -----------------------------------------------------------------|

===================================================================

Guitar 1
C#-----------------------------------------------------------------|
G#-----------------------------------------------------------------|
E -----------------------------------------------------------------|
B -----------------------------------------------------------------|
F#-----------------------------------------------------------------|
B -5---5---5---5---5---5---5---5---5---5---5---5---5---5---5---5---|

Guitar 2
C#-----------------22~~~~~-20~~~~~~~~~~~~~~~~~~~~~-22~~~~~-18~~~~~~-|
G#------------------------------------------------------------------|
E ------------------------------------------------------------------|
B ------------------------------------------------------------------|
F#------------------------------------------------------------------|
B ------------------------------------------------------------------|

===================================================================

Guitar 1
C#-----------------------------------------------------------------|
G#-----------------------------------------------------------------|
E -----------------------------------------------------------------|
B -----------------------------------------------------------------|
F#-----------------------------------------------------------------|
B -3---3---3---3---3---3---3---3---3---3---3---3---3---3---3---3---|

Guitar 2
C#-~~~~~~~~~~~~~~~-22~~~~~-20~~~~~~~~~~~~~~~~~~~~~-22~~~~~-18~~~~~~-|
G#------------------------------------------------------------------|
E ------------------------------------------------------------------|
B ------------------------------------------------------------------|
F#------------------------------------------------------------------|
B ------------------------------------------------------------------|

===================================================================

Guitar 1
C#-----------------------------------------------------------------|
G#-----------------------------------------------------------------|
E -----------------------------------------------------------------|
B -----------------------------------------------------------------|
F#-----------------------------------------------------------------|
B -8---8---8---8---8---8---8---8---8---8---8---8---8---8---8---8---|

Guitar 2
C#-~~~~~~~~~~~~~~~-22~~~~~-20~~~~~~~~~~~~~~~~~~~~~-22~~~~~----------|
G#---------------------------------------------------------20~~~~~~-|
E ------------------------------------------------------------------|
B ------------------------------------------------------------------|
F#------------------------------------------------------------------|
B ------------------------------------------------------------------|

===================================================================

Guitar 1
C#-----------------------------------------------------------------|
G#-----------------------------------------------------------------|
E -----------------------------------------------------------------|
B -----------------------------------------------------------------|
F#-----------------------------------------------------------------|
B -1---1---1---1---1---1---1---1---1---1---1---1---1---1---1---1---|

Guitar 2
C#-----------------------------------------------------------------|
G#-~~~~~~~~~~~~~~~~~~~~~~~~~~~~~~~---------------------------------|
E -----------------------------------------------------------------|
B -----------------------------------------------------------------|
F#-----------------------------------------------------------------|
B -----------------------------------------------------------------|

===================================================================
===================================================================


Pre Chorus

Guitar 1
C#-----------------------------------------------------------------|
G#-----------------------------------------------------------------|
E ---------------------------------7---7---7---7---7---7---7---7---|
B -5---5---5---5---5---5---5---5---7---7---7---7---7---7---7---7---|
F#-5---5---5---5---5---5---5---5---5---5---5---5---5---5---5---5---|
B -5---5---5---5---5---5---5---5-----------------------------------|

Guitar 2
C#-----------------------------------------------------------------|
G#-8---8---8---8---8---8---8---8---10--10--10--10--11--11--11--11--|
E -x---x---x---x---x---x---x---x---x---x---x---x---x---x---x---x---|
B -5---5---5---5---5---5---5---5---7---7---7---7---8---8---8---8---|
F#-----------------------------------------------------------------|
B -----------------------------------------------------------------|

===================================================================

Guitar 1
C#-----------------------------------------------------------------|
G#-----------------------------------------------------------------|
E -----------------------------------------------------------------|
B -1---1---1---1---1---1---1---1---1---1---1---1---1---1---1---1---|
F#-1---1---1---1---1---1---1---1---1---1---1---1---1---1---1---1---|
B -1---1---1---1---1---1---1---1---1---1---1---1---1---1---1---1---|

Guitar 2
C#-----------------------------------------------------------------|
G#---------------------------------11--11--11--11--13--13--13--13--|
E -8---8---8---8---8---8---8---8---x---x---x---x---x---x---x---x---|
B -x---x---x---x---x---x---x---x---8---8---8---8---10--10--10--10--|
F#-6---6---6---6---6---6---6---6-----------------------------------|
B -----------------------------------------------------------------|

===================================================================

Guitar 1
C#-----------------------------------------------------------------|
G#-----------------------------------------------------------------|
E -----------------------------------------------------------------|
B -3---3---3---3---3---3---3---3---3---3---3---3---3---3---3---3---|
F#-3---3---3---3---3---3---3---3---3---3---3---3---3---3---3---3---|
B -3---3---3---3---3---3---3---3---3---3---3---3---3---3---3---3---|

Guitar 2
C#-----------------------------------------------------------------|
G#-10--10--10--10--10--10--10--10--10--10--10--10--10--10--10--10--|
E -x---x---x---x---x---x---x---x---x---x---x---x---x---x---x---x---|
B -7---7---7---7---7---7---7---7---7---7---7---7---7---7---7---7---|
F#-----------------------------------------------------------------|
B -----------------------------------------------------------------|

===================================================================

Guitar 1
C#-----------------------------------------------------------------|
G#-----------------------------------------------------------------|
E -----------------------------------------------------------------|
B -3---3---3---3---3---3---3---3---3---3---3---3---3---3---3---3---|
F#-3---3---3---3---3---3---3---3---3---3---3---3---3---3---3---3---|
B -3---3---3---3---3---3---3---3---3---3---3---3---3---3---3---3---|

Guitar 2
C#-----------------------------------------------------------------|
G#-13--13--13--13--13--13--13--13--13--13--13--13--13--13--13--13--|
E -x---x---x---x---x---x---x---x---x---x---x---x---x---x---x---x---|
B -10--10--10--10--10--10--10--10--10--10--10--10--10--10--10--10--|
F#-----------------------------------------------------------------|
B -----------------------------------------------------------------|

===================================================================
===================================================================


Chorus 2

Guitar 1
C#-----------------------------------------------------------------|
G#-----------------------------------------------------------------|
E ---------------------------------3~~~~~~-3~~~~~~-3~~~~~~-3~~~~~~-|
B -1~~~~~~-1~~~~~~-1~~~~~~-1~~~~~~-3~~~~~~-3~~~~~~-3~~~~~~-3~~~~~~-|
F#-1~~~~~~-1~~~~~~-1~~~~~~-1~~~~~~-1~~~~~~-1~~~~~~-1~~~~~~-1~~~~~~-|
B -1~~~~~~-1~~~~~~-1~~~~~~-1~~~~~~---------------------------------|

Guitar 2
C#-----------------------------------------------------------------|
G#---------------------------------11~~~~~-11~~~~~-11~~~~~-11~~~~~-|
E -8~~~~~~-8~~~~~~-8~~~~~~-8~~~~~~-x-------x-------x-------x-------|
B -x-------x-------x-------x-------8~~~~~~-8~~~~~~-8~~~~~~-8~~~~~~-|
F#-6~~~~~~-6~~~~~~-6~~~~~~-6~~~~~~---------------------------------|
B -----------------------------------------------------------------|

===================================================================

Guitar 1
C#-----------------------------------------------------------------|
G#-----------------------------------------------------------------|
E -----------------------------------------------------------------|
B -3~~~~~~-3~~~~~~-3~~~~~~-3~~~~~~-3~~~~~~-3~~~~~~-5~~~~~~-5~~~~~~-|
F#-3~~~~~~-3~~~~~~-3~~~~~~-3~~~~~~-3~~~~~~-3~~~~~~-5~~~~~~-5~~~~~~-|
B -3~~~~~~-3~~~~~~-3~~~~~~-3~~~~~~-3~~~~~~-3~~~~~~-5~~~~~~-5~~~~~~-|

Guitar 2
C#-----------------------------------------------------------------|
G#-6~~~~~~-6~~~~~~-6~~~~~~-6~~~~~~-6~~~~~~-6~~~~~~-8~~~~~~-8~~~~~~-|
E -x-------x-------x-------x-------x-------x-------x-------x-------|
B -3~~~~~~-3~~~~~~-3~~~~~~-3~~~~~~-3~~~~~~-3~~~~~~-5~~~~~~-5~~~~~~-|
F#-----------------------------------------------------------------|
B -----------------------------------------------------------------|

===================================================================

Guitar 1
C#-----------------------------------------------------------------|
G#-----------------------------------------------------------------|
E ---------------------------------3~~~~~~-3~~~~~~-3~~~~~~-3~~~~~~-|
B -1~~~~~~-1~~~~~~-1~~~~~~-1~~~~~~-3~~~~~~-3~~~~~~-3~~~~~~-3~~~~~~-|
F#-1~~~~~~-1~~~~~~-1~~~~~~-1~~~~~~-1~~~~~~-1~~~~~~-1~~~~~~-1~~~~~~-|
B -1~~~~~~-1~~~~~~-1~~~~~~-1~~~~~~---------------------------------|

Guitar 2
C#-----------------------------------------------------------------|
G#---------------------------------11~~~~~-11~~~~~-11~~~~~-11~~~~~-|
E -8~~~~~~-8~~~~~~-8~~~~~~-8~~~~~~-x-------x-------x-------x-------|
B -x-------x-------x-------x-------8~~~~~~-8~~~~~~-8~~~~~~-8~~~~~~-|
F#-6~~~~~~-6~~~~~~-6~~~~~~-6~~~~~~---------------------------------|
B -----------------------------------------------------------------|

===================================================================

Guitar 1
C#-----------------------------------------------------------------|
G#-----------------------------------------------------------------|
E -------------------------------------------------5/--7~~~~~~~~~~-|
B -3~~~~~~-3~~~~~~-3~~~~~~-3~~~~~~-3~~~~~~-3~~~~~~-5/--7~~~~~~~~~~-|
F#-3~~~~~~-3~~~~~~-3~~~~~~-3~~~~~~-3~~~~~~-3~~~~~~-3/--5~~~~~~~~~~-|
B -3~~~~~~-3~~~~~~-3~~~~~~-3~~~~~~-3~~~~~~-3~~~~~~-----------------|

Guitar 2
C#-----------------------------------------------------------------|
G#-6~~~~~~-6~~~~~~-6~~~~~~-6~~~~~~-6~~~~~~-6~~~~~~-----------------|
E -x-------x-------x-------x-------x-------x-------5/--7~~~~~~~~~~-|
B -3~~~~~~-3~~~~~~-3~~~~~~-3~~~~~~-3~~~~~~-3~~~~~~-x/--x-----------|
F#-------------------------------------------------3/--5~~~~~~~~~~-|
B -----------------------------------------------------------------|

===================================================================

Guitar 1
C#-----------------------------------------------------------------|
G#-----------------------------------------------------------------|
E ---------------------------------3~~~~~~-3~~~~~~-3~~~~~~-3~~~~~~-|
B -1~~~~~~-1~~~~~~-1~~~~~~-1~~~~~~-3~~~~~~-3~~~~~~-3~~~~~~-3~~~~~~-|
F#-1~~~~~~-1~~~~~~-1~~~~~~-1~~~~~~-1~~~~~~-1~~~~~~-1~~~~~~-1~~~~~~-|
B -1~~~~~~-1~~~~~~-1~~~~~~-1~~~~~~---------------------------------|

Guitar 2
C#-----------------------------------------------------------------|
G#---------------------------------11~~~~~-11~~~~~-11~~~~~-11~~~~~-|
E -8~~~~~~-8~~~~~~-8~~~~~~-8~~~~~~-x-------x-------x-------x-------|
B -x-------x-------x-------x-------8~~~~~~-8~~~~~~-8~~~~~~-8~~~~~~-|
F#-6~~~~~~-6~~~~~~-6~~~~~~-6~~~~~~---------------------------------|
B -----------------------------------------------------------------|

===================================================================

Guitar 1
C#-----------------------------------------------------------------|
G#-----------------------------------------------------------------|
E -----------------------------------------------------------------|
B -0~~~~~~-0~~~~~~-0~~~~~~-0~~~~~~-5~~~~~~~~~~~~~~-3~~~~~~~~~~~~~~-|
F#-0~~~~~~-0~~~~~~-0~~~~~~-0~~~~~~-5~~~~~~~~~~~~~~-3~~~~~~~~~~~~~~-|
B -0~~~~~~-0~~~~~~-0~~~~~~-0~~~~~~-5~~~~~~~~~~~~~~-3~~~~~~~~~~~~~~-|

Guitar 2
C#-----------------------------------------------------------------|
G#---------------------------------8~~~~~~~~~~~~~~-10~~~~~~~~~~~~~-|
E -7~~~~~~-7~~~~~~-7~~~~~~-7~~~~~~-x---------------x---------------|
B -x-------x-------x-------x-------5~~~~~~~~~~~~~~-7~~~~~~~~~~~~~~-|
F#-5~~~~~~-5~~~~~~-5~~~~~~-5~~~~~~---------------------------------|
B -----------------------------------------------------------------|

===================================================================

Guitar 1
C#-----------------------------------------------------------------|
G#-----------------------------------------------------------------|
E ---------------------------------3~~~~~~-3~~~~~~-3~~~~~~-3~~~~~~-|
B -1~~~~~~-1~~~~~~-1~~~~~~-1~~~~~~-3~~~~~~-3~~~~~~-3~~~~~~-3~~~~~~-|
F#-1~~~~~~-1~~~~~~-1~~~~~~-1~~~~~~-1~~~~~~-1~~~~~~-1~~~~~~-1~~~~~~-|
B -1~~~~~~-1~~~~~~-1~~~~~~-1~~~~~~---------------------------------|

Guitar 2
C#-----------------------------------------------------------------|
G#-11~~~~~-11~~~~~-11~~~~~-11--10--11~~~~~-11~~~~~-11~~~~~-11/-6---|
E -x-------x-------x-------x---x---x-------x-------x-------x/--x---|
B -8~~~~~~-8~~~~~~-8~~~~~~-8---7---8~~~~~~-8~~~~~~-8~~~~~~-8/--3---|
F#-----------------------------------------------------------------|
B -----------------------------------------------------------------|

===================================================================

Guitar 1
C#-----------------------------------------------------------------|
G#-----------------------------------------------------------------|
E -----------------------------------------------------------------|
B -3~~~~~~-3~~~~~~-3~~~~~~-3~~~~~~-3~~~~~~-3~~~~~~-3~~~~~~-3~~~~~~-|
F#-3~~~~~~-3~~~~~~-3~~~~~~-3~~~~~~-3~~~~~~-3~~~~~~-3~~~~~~-3~~~~~~-|
B -3~~~~~~-3~~~~~~-3~~~~~~-3~~~~~~-3~~~~~~-3~~~~~~-3~~~~~~-3~~~~~~-|

Guitar 2
C#-----------------------------------------------------------------|
G#-6~~~~~~-6~~~~~~-6~~~~~~-6~~~~~~-6~~~~~~-6~~~~~~-6~~~~~~---------|
E -x-------x-------x-------x-------x-------x-------x---------------|
B -3~~~~~~-3~~~~~~-3~~~~~~-3~~~~~~-3~~~~~~-3~~~~~~-3~~~~~~---------|
F#---------------------------------------------------------8---10--|
B -----------------------------------------------------------------|

===================================================================
===================================================================


Guitar Solo

Guitar 1
C#-----------------------------------------------------------------|
G#-----------------------------------------------------------------|
E -------------------------------------------------3---3---3---3---|
B -5---5---5---5---5---5---5---5---5---5---5---5---3---3---3---3---|
F#-5---5---5---5---5---5---5---5---5---5---5---5---1---1---1---1---|
B -5---5---5---5---5---5---5---5---5---5---5---5-------------------|

Guitar 2
C#-----------------------------------------------------------------|
G#-----------------------------------------------------------------|
E -----------------------------------------------------------------|
B -12~~~~~~~~~-12~b~r~-8---10~~~~~~~~~~~~~~~~~~~~~~~~~~~~~---------|
F#---------------------------------------------------------8---10--|
B -----------------------------------------------------------------|

===================================================================

Guitar 1
C#-----------------------------------------------------------------|
G#-----------------------------------------------------------------|
E -----------------------------------------------------------------|
B -1---1---1---1---1---1---1---1---1---1---1---1---3---3---3---3---|
F#-1---1---1---1---1---1---1---1---1---1---1---1---3---3---3---3---|
B -1---1---1---1---1---1---1---1---1---1---1---1---3---3---3---3---|

Guitar 2
C#-----------------------------------------------------------------|
G#-----------------------------------------------------------------|
E ------------------------/12~~~~~~~~~~~~~~~~~~~~~~~~~~~~~---------|
B -12~~~~~~~~~-12~b~r~-8-------------------------------------------|
F#---------------------------------------------------------8---10--|
B -----------------------------------------------------------------|

===================================================================

Guitar 1
C#-----------------------------------------------------------------|
G#-----------------------------------------------------------------|
E -------------------------------------------------3---3---3---3---|
B -5---5---5---5---5---5---5---5---5---5---5---5---3---3---3---3---|
F#-5---5---5---5---5---5---5---5---5---5---5---5---1---1---1---1---|
B -5---5---5---5---5---5---5---5---5---5---5---5-------------------|

Guitar 2
C#-----------------------------------------------------------------|
G#-----------------------------------------------------------------|
E -----------------------------------------------------------------|
B -12~~~~~~~~~-12~b~r~-8---10~~~~~~~~~~~~~~~~~~~~~~~~~~~~~-8-------|
F#-------------------------------------------------------------12--|
B -----------------------------------------------------------------|

===================================================================

Guitar 1
C#-----------------------------------------------------------------|
G#-----------------------------------------------------------------|
E -------------------------------------------------5~~~~~~~~~~~~~~-|
B -1---1---1---1---1---1---1---1---1---1---1---1---5~~~~~~~~~~~~~--|
F#-1---1---1---1---1---1---1---1---1---1---1---1---3~~~~~~~~~~~~~~-|
B -1---1---1---1---1---1---1---1---1---1---1---1-------------------|

Guitar 2
C#-----------------------------------------------------------------|
G#-----------------------------------------------------------------|
E ---------------------------------------------------10-12-14~~\~~-|
B ------------------------------------------10-12-14---------------|
F#-12~~~~~~~~~-12~b~r~-8---10~~~~~-10-12-14------------------------|
B -----------------------------------------------------------------|

===================================================================

Guitar 1
C#-----------------------------------------------------------------|
G#-----------------------------------------------------------------|
E -------------------------------------------------5---5---5---5---|
B -7---7---7---7---7---7---7---7---7---7---7---7---5---5---5---5---|
F#-7---7---7---7---7---7---7---7---7---7---7---7---3---3---3---3---|
B -7---7---7---7---7---7---7---7---7---7---7---7-------------------|

Guitar 2
C#-----------------------------------------------------------------|
G#---------10~~~~~-8~~~~~~-7~~~~~~-8~~~~~~-7~~~~~~-8---7-----------|
E -----9~~~~~~-9~~~~~~-9~~~~~~-9~~~~~~-9~~~~~~-9~~---------7---9---|
B -7~~~~~~~~~~~~~~~~~~~~~~~~~~~~~~~~~~~~~~~~~~~~~~-----------------|
F#-----------------------------------------------------------------|
B -----------------------------------------------------------------|

===================================================================

Guitar 1
C#-----------------------------------------------------------------|
G#-----------------------------------------------------------------|
E -----------------------------------------------------------------|
B -3---3---3---3---3---3---3---3---3---3---3---3---5---5---5---5---|
F#-3---3---3---3---3---3---3---3---3---3---3---3---5---5---5---5---|
B -3---3---3---3---3---3---3---3---3---3---3---3---5---5---5---5---|

Guitar 2
C#-------------------------------------------------8---7-----------|
G#---------10~~~~~-8~~~~~~-7~~~~~~-8~~~~~~-7~~~~~~---------8---10--|
E -----9~~~~~~-9~~~~~~-9~~~~~~-9~~~~~~-9~~~~~~-9~~-----------------|
B -7~~~~~~~~~~~~~~~~~~~~~~~~~~~~~~~~~~~~~~~~~~~~~~-----------------|
F#-----------------------------------------------------------------|
B -----------------------------------------------------------------|

===================================================================

Guitar 1
C#-----------------------------------------------------------------|
G#-----------------------------------------------------------------|
E -------------------------------------------------5---5---5---5---|
B -7---7---7---7---7---7---7---7---7---7---7---7---5---5---5---5---|
F#-7---7---7---7---7---7---7---7---7---7---7---7---3---3---3---3---|
B -7---7---7---7---7---7---7---7---7---7---7---7-------------------|

Guitar 2
C#----------------------------------------------------|
G#----------------------------------------------------|
E -------12h14p12----------12h14p12----------12h14p12-|
B -12h14----------14p12h14----------14p12h14----------|
F#----------------------------------------------------|
B ----------------------------------------------------|

Guitar 2 continued
C#----------------------------|
G#----------------------------|
E ----------12h14p12----12h14-|
B -14p12h14----------14-------|
F#----------------------------|
B ----------------------------|

===================================================================

Guitar 1
C#-----------------------------------------------------------------|
G#-----------------------------------------------------------------|
E -----------------------------------------------------------------|
B -3---3---3---3---3---3---3---3---3---3---3---3---5---5---5---5---|
F#-3---3---3---3---3---3---3---3---3---3---3---3---5---5---5---5---|
B -3---3---3---3---3---3---3---3---3---3---3---3---5---5---5---5---|

Guitar 2
C#-------------------------------------------------------|
G#-12h13p12----------12h15p12----------12h13p12----------|
E ----------14p12h14----------14p12h14----------14p12h14-|
B -------------------------------------------------------|
F#-------------------------------------------------------|
B -------------------------------------------------------|

Guitar 2 continued
C#-------------------15-13-12----------------|
G#-12h15p12-------------------15-13-12-------|
E ----------14p12h14-------------------14-12-|
B -------------------------------------------|
F#-------------------------------------------|
B -------------------------------------------|

===================================================================

Guitar 1
C#-----------------------------------------------------------------|
G#-----------------------------------------------------------------|
E -----------------------------------------------------------------|
B -7---7---7---7---7---7---7---7---7---7---7---7---7---------------|
F#-7---7---7---7---7---7---7---7---7---7---7---7---7---------------|
B -7---7---7---7---7---7---7---7---7---7---7---7---7---------------|
Pm .   .   .   .   .   .

Guitar 2
C#----------------------------------------------------17-19-20b~~~-|
G#------------------------------------------17-19-20---------------|
E -14~~~~~~~~~~~~~-16~~~~~~~~~~~~~-16-17-19------------------------|
B -----------------------------------------------------------------|
F#-----------------------------------------------------------------|
B -----------------------------------------------------------------|

===================================================================
===================================================================


Chorus 3

Guitar 1
C#-----------------------------------------------------------------|
G#-----------------------------------------------------------------|
E ---------------------------------5~~~~~~-5~~~~~~-5~~~~~~-5~~~~~~-|
B -3~~~~~~-3~~~~~~-3~~~~~~-3~~~~~~-5~~~~~~-5~~~~~~-5~~~~~~-5~~~~~~-|
F#-3~~~~~~-3~~~~~~-3~~~~~~-3~~~~~~-3~~~~~~-3~~~~~~-3~~~~~~-3~~~~~~-|
B -3~~~~~~-3~~~~~~-3~~~~~~-3~~~~~~---------------------------------|

Guitar 2
C#-20~~~~~~~~~~~~~~~~~~~~~~~~~~~~~---------------------------------|
G#---------------------------------13~~~~~-13~~~~~-13~~~~~-13~~~~~-|
E ---------------------------------x-------x-------x-------x-------|
B ---------------------------------10~~~~~-10~~~~~-10~~~~~-10~~~~~-|
F#-----------------------------------------------------------------|
B -----------------------------------------------------------------|

===================================================================

Guitar 1
C#-----------------------------------------------------------------|
G#-----------------------------------------------------------------|
E -----------------------------------------------------------------|
B -5~~~~~~-5~~~~~~-5~~~~~~-5~~~~~~-5~~~~~~-5~~~~~~-7~~~~~~-7~~~~~~-|
F#-5~~~~~~-5~~~~~~-5~~~~~~-5~~~~~~-5~~~~~~-5~~~~~~-7~~~~~~-7~~~~~~-|
B -5~~~~~~-5~~~~~~-5~~~~~~-5~~~~~~-5~~~~~~-5~~~~~~-7~~~~~~-7~~~~~~-|

Guitar 2
C#-----------------------------------------------------------------|
G#-8~~~~~~-8~~~~~~-8~~~~~~-8~~~~~~-8~~~~~~-8~~~~~~-10~~~~~-10~~~~~-|
E -x-------x-------x-------x-------x-------x-------x-------x-------|
B -5~~~~~~-5~~~~~~-5~~~~~~-5~~~~~~-5~~~~~~-5~~~~~~-7~~~~~~-7~~~~~~-|
F#-----------------------------------------------------------------|
B -----------------------------------------------------------------|

===================================================================

Guitar 1
C#-----------------------------------------------------------------|
G#-----------------------------------------------------------------|
E ---------------------------------5~~~~~~-5~~~~~~-5~~~~~~-5~~~~~~-|
B -3~~~~~~-3~~~~~~-3~~~~~~-3~~~~~~-5~~~~~~-5~~~~~~-5~~~~~~-5~~~~~~-|
F#-3~~~~~~-3~~~~~~-3~~~~~~-3~~~~~~-3~~~~~~-3~~~~~~-3~~~~~~-3~~~~~~-|
B -3~~~~~~-3~~~~~~-3~~~~~~-3~~~~~~---------------------------------|

Guitar 2
C#-----------------------------------------------------------------|
G#---------------------------------13~~~~~-13~~~~~-13~~~~~-13~~~~~-|
E -10~~~~~-10~~~~~-10~~~~~-10~~~~~-x-------x-------x-------x-------|
B -x-------x-------x-------x-------10~~~~~-10~~~~~-10~~~~~-10~~~~~-|
F#-8~~~~~~-8~~~~~~-8~~~~~~-8~~~~~~---------------------------------|
B -----------------------------------------------------------------|

===================================================================

Guitar 1
C#-----------------------------------------------------------------|
G#-----------------------------------------------------------------|
E -------------------------------------------------7/--9~~~~~~~~~~-|
B -5~~~~~~-5~~~~~~-5~~~~~~-5~~~~~~-5~~~~~~-5~~~~~~-7/--9~~~~~~~~~~-|
F#-5~~~~~~-5~~~~~~-5~~~~~~-5~~~~~~-5~~~~~~-5~~~~~~-5/--7~~~~~~~~~~-|
B -5~~~~~~-5~~~~~~-5~~~~~~-5~~~~~~-5~~~~~~-5~~~~~~-----------------|

Guitar 2
C#-----------------------------------------------------------------|
G#-8~~~~~~-8~~~~~~-8~~~~~~-8~~~~~~-8~~~~~~-8~~~~~~-----------------|
E -x-------x-------x-------x-------x-------x-------7/--9~~~~~~~~~~-|
B -5~~~~~~-5~~~~~~-5~~~~~~-5~~~~~~-5~~~~~~-5~~~~~~-x/--x-----------|
F#-------------------------------------------------5/--7~~~~~~~~~~-|
B -----------------------------------------------------------------|

===================================================================

Guitar 1
C#-----------------------------------------------------------------|
G#-----------------------------------------------------------------|
E ---------------------------------5~~~~~~-5~~~~~~-5~~~~~~-5~~~~~~-|
B -3~~~~~~-3~~~~~~-3~~~~~~-3~~~~~~-5~~~~~~-5~~~~~~-5~~~~~~-5~~~~~~-|
F#-3~~~~~~-3~~~~~~-3~~~~~~-3~~~~~~-3~~~~~~-3~~~~~~-3~~~~~~-3~~~~~~-|
B -3~~~~~~-3~~~~~~-3~~~~~~-3~~~~~~---------------------------------|

Guitar 2
C#-----------------------------------------------------------------|
G#---------------------------------13~~~~~-13~~~~~-13~~~~~-13~~~~~-|
E -10~~~~~-10~~~~~-10~~~~~-10~~~~~-x-------x-------x-------x-------|
B -x-------x-------x-------x-------10~~~~~-10~~~~~-10~~~~~-10~~~~~-|
F#-8~~~~~~-8~~~~~~-8~~~~~~-8~~~~~~---------------------------------|
B -----------------------------------------------------------------|

===================================================================

Guitar 1
C#-----------------------------------------------------------------|
G#-----------------------------------------------------------------|
E -----------------------------------------------------------------|
B -2~~~~~~-2~~~~~~-2~~~~~~-2~~~~~~-7~~~~~~~~~~~~~~-5~~~~~~~~~~~~~~-|
F#-2~~~~~~-2~~~~~~-2~~~~~~-2~~~~~~-7~~~~~~~~~~~~~~-5~~~~~~~~~~~~~~-|
B -2~~~~~~-2~~~~~~-2~~~~~~-2~~~~~~-7~~~~~~~~~~~~~~-5~~~~~~~~~~~~~~-|

Guitar 2
C#-----------------------------------------------------------------|
G#---------------------------------10~~~~~~~~~~~~~-12~~~~~~~~~~~~~-|
E -9~~~~~~-9~~~~~~-9~~~~~~-9~~~~~~-x---------------x---------------|
B -x-------x-------x-------x-------7~~~~~~~~~~~~~~-9~~~~~~~~~~~~~~-|
F#-7~~~~~~-7~~~~~~-7~~~~~~-7~~~~~~---------------------------------|
B -----------------------------------------------------------------|

===================================================================

Guitar 1
C#-----------------------------------------------------------------|
G#-----------------------------------------------------------------|
E ---------------------------------5~~~~~~-5~~~~~~-5~~~~~~-5~~~~~~-|
B -3~~~~~~-3~~~~~~-3~~~~~~-3~~~~~~-5~~~~~~-5~~~~~~-5~~~~~~-5~~~~~~-|
F#-3~~~~~~-3~~~~~~-3~~~~~~-3~~~~~~-3~~~~~~-3~~~~~~-3~~~~~~-3~~~~~~-|
B -3~~~~~~-3~~~~~~-3~~~~~~-3~~~~~~---------------------------------|

Guitar 2
C#-----------------------------------------------------------------|
G#-13~~~~~-13~~~~~-13~~~~~-13--12--13~~~~~-13~~~~~-13~~~~~-13/-8---|
E -x-------x-------x-------x---x---x-------x-------x-------x/--x---|
B -10~~~~~-10~~~~~-10~~~~~-10--9---10~~~~~-10~~~~~-10~~~~~-10/-5---|
F#-----------------------------------------------------------------|
B -----------------------------------------------------------------|

===================================================================

Guitar 1
C#-----------------------------------------------------------------|
G#-----------------------------------------------------------------|
E -----------------------------------------------------------------|
B -5~~~~~~-5~~~~~~-5~~~~~~-5~~~~~~-5~~~~~~-5~~~~~~-5~~~~~~-5~~~~~~-|
F#-5~~~~~~-5~~~~~~-5~~~~~~-5~~~~~~-5~~~~~~-5~~~~~~-5~~~~~~-5~~~~~~-|
B -5~~~~~~-5~~~~~~-5~~~~~~-5~~~~~~-5~~~~~~-5~~~~~~-5~~~~~~-5~~~~~~-|

Guitar 2
C#-----------------------------------------------------------------|
G#-8~~~~~~-8~~~~~~-8~~~~~~-8~~~~~~-8~~~~~~-8~~~~~~-8~~~~~~-8~~~~~~-|
E -x-------x-------x-------x-------x-------x-------x-------x-------|
B -5~~~~~~-5~~~~~~-5~~~~~~-5~~~~~~-5~~~~~~-5~~~~~~-5~~~~~~-5~~~~~~-|
F#-----------------------------------------------------------------|
B -----------------------------------------------------------------|

===================================================================
===================================================================


Bridge

Guitar 2
C#-----------------------------------------------------------------|
G#---------------------------------13~~~~~-13~~~~~-13~~~~~-13~~~~~-|
E -10~~~~~-10~~~~~-10~~~~~-10~~~~~-x-------x-------x-------x-------|
B -x-------x-------x-------x-------10~~~~~-10~~~~~-10~~~~~-10~~~~~-|
F#-8~~~~~~-8~~~~~~-8~~~~~~-8~~~~~~---------------------------------|
B -----------------------------------------------------------------|

===================================================================

Guitar 1
C#-----------------------------------------------------------------|
G#-----------------------------------------------------------------|
E -----------------------------------------------------------------|
B -5~~~~~~-5---5---5---5---5---5---5---5---5---5-------------------|
F#-5~~~~~~-5---5---5---5---5---5---5---5---5---5-------------------|
B -5~~~~~~-5---5---5---5---5---5---5---5---5---5-------------------|
Pm         .   .   .   .   .   .

Guitar 2
C#-----------------------------------------------------------------|
G#-8~~~~~~-8~~~~~~-8~~~~~~-8~~~~~~-8~~~~~~-8~~~~~~-----------------|
E -x-------x-------x-------x-------x-------x-------7/--9~~~~~~~~~~-|
B -5~~~~~~-5~~~~~~-5~~~~~~-5~~~~~~-5~~~~~~-5~~~~~~-x/--x-----------|
F#-------------------------------------------------5/--7~~~~~~~~~~-|
B -----------------------------------------------------------------|

===================================================================
===================================================================


Chorus 4

Guitar 1
C#-----------------------------------------------------------------|
G#-----------------------------------------------------------------|
E ---------------------------------5~~~~~~-5~~~~~~-5~~~~~~-5~~~~~~-|
B -3~~~~~~-3~~~~~~-3~~~~~~-3~~~~~~-5~~~~~~-5~~~~~~-5~~~~~~-5~~~~~~-|
F#-3~~~~~~-3~~~~~~-3~~~~~~-3~~~~~~-3~~~~~~-3~~~~~~-3~~~~~~-3~~~~~~-|
B -3~~~~~~-3~~~~~~-3~~~~~~-3~~~~~~---------------------------------|

Guitar 2
C#-----------------------------------------------------------------|
G#---------------------------------13~~~~~-13~~~~~-13~~~~~-13~~~~~-|
E -10~~~~~-10~~~~~-10~~~~~-10~~~~~-x-------x-------x-------x-------|
B -x-------x-------x-------x-------10~~~~~-10~~~~~-10~~~~~-10~~~~~-|
F#-8~~~~~~-8~~~~~~-8~~~~~~-8~~~~~~---------------------------------|
B -----------------------------------------------------------------|

===================================================================

Guitar 1
C#-----------------------------------------------------------------|
G#-----------------------------------------------------------------|
E -----------------------------------------------------------------|
B -2~~~~~~-2~~~~~~-2~~~~~~-2~~~~~~-7~~~~~~~~~~~~~~-5~~~~~~~~~~~~~~-|
F#-2~~~~~~-2~~~~~~-2~~~~~~-2~~~~~~-7~~~~~~~~~~~~~~-5~~~~~~~~~~~~~~-|
B -2~~~~~~-2~~~~~~-2~~~~~~-2~~~~~~-7~~~~~~~~~~~~~~-5~~~~~~~~~~~~~~-|

Guitar 2
C#-----------------------------------------------------------------|
G#---------------------------------10~~~~~~~~~~~~~-12~~~~~~~~~~~~~-|
E -9~~~~~~-9~~~~~~-9~~~~~~-9~~~~~~-x---------------x---------------|
B -x-------x-------x-------x-------7~~~~~~~~~~~~~~-9~~~~~~~~~~~~~~-|
F#-7~~~~~~-7~~~~~~-7~~~~~~-7~~~~~~---------------------------------|
B -----------------------------------------------------------------|

===================================================================

Guitar 1
C#-----------------------------------------------------------------|
G#-----------------------------------------------------------------|
E ---------------------------------5~~~~~~-5~~~~~~-5~~~~~~-5~~~~~~-|
B -3~~~~~~-3~~~~~~-3~~~~~~-3~~~~~~-5~~~~~~-5~~~~~~-5~~~~~~-5~~~~~~-|
F#-3~~~~~~-3~~~~~~-3~~~~~~-3~~~~~~-3~~~~~~-3~~~~~~-3~~~~~~-3~~~~~~-|
B -3~~~~~~-3~~~~~~-3~~~~~~-3~~~~~~---------------------------------|

Guitar 2
C#-----------------------------------------------------------------|
G#-13~~~~~-13~~~~~-13~~~~~-13--12--13~~~~~-13~~~~~-13~~~~~-13/-8---|
E -x-------x-------x-------x---x---x-------x-------x-------x/--x---|
B -10~~~~~-10~~~~~-10~~~~~-10--9---10~~~~~-10~~~~~-10~~~~~-10/-5---|
F#-----------------------------------------------------------------|
B -----------------------------------------------------------------|

===================================================================

Guitar 1
C#-----------------------------------------------------------------|
G#-----------------------------------------------------------------|
E -----------------------------------------------------------------|
B -5~~~~~~-5~~~~~~-5~~~~~~-5~~~~~~-5~~~~~~-5~~~~~~-5~~~~~~-5~~~~~~-|
F#-5~~~~~~-5~~~~~~-5~~~~~~-5~~~~~~-5~~~~~~-5~~~~~~-5~~~~~~-5~~~~~~-|
B -5~~~~~~-5~~~~~~-5~~~~~~-5~~~~~~-5~~~~~~-5~~~~~~-5~~~~~~-5~~~~~~-|

Guitar 2
C#-----------------------------------------------------------------|
G#-8~~~~~~-8~~~~~~-8~~~~~~-8~~~~~~-8~~~~~~-8~~~~~~-8~~~~~~-8~~~~~~-|
E -x-------x-------x-------x-------x-------x-------x-------x-------|
B -5~~~~~~-5~~~~~~-5~~~~~~-5~~~~~~-5~~~~~~-5~~~~~~-5~~~~~~-5~~~~~~-|
F#-----------------------------------------------------------------|
B -----------------------------------------------------------------|

===================================================================
===================================================================


Outro

Guitar 1 (x8) (Echo effect)
C#-----------------------------------------------------------------|
G#-----------------------------------------------------------------|
E -10~~~~~-10~~~~~-9~~~~~~-9~~~~~~-7~~~~~~-7~~~~~~-7~~~~~~-7---9---|
B -----10~~~~~-10~~~~~-10~~~~~-10~~~~~-10~~~~~-10~~~~~-10~~~~~~~~~-|
F#-----------------------------------------------------------------|
B -----------------------------------------------------------------|

Guitar 2 (x10) (Echo effect)
C#-13~~~~~-13~~~~~-12~~~~~-12~~~~~-10~~~~~-10~~~~~-10~~~~~-10--12--|
G#-----13~~~~~-13~~~~~-13~~~~~-13~~~~~-13~~~~~-13~~~~~-13~~~~~~~~~-|
E -----------------------------------------------------------------|
B -----------------------------------------------------------------|
F#-----------------------------------------------------------------|
B -----------------------------------------------------------------|

===================================================================
===================================================================
===================================================================


Tab Legend
h  -  hammer-on
p  -  pull-off
/  -  slide up
\  -  slide down
ps/-  pickslide up
ps\-  pickslide down
~  -  let ring
pm.-  palm mute
b  -  bend
r  -  return from bend
*  -  harmonic
x  -  dead note
^  -  Whammy bar
^\ -  Whammy bar (hold down)

That’s the end of it! I hope this helped, and be sure to check out my cover if you are 
having problems with the tab. Thanks, oh and one last thing... ROCK OUT!!!!
comments
print report bad tab
I want to post or [tab]
guest
You may want to rate the tab now too:
select rating
Please do not post tabs as comments. Select "correction" instead!