Oops, an error
Loading. Please wait.

God Forsaken Tab

4,684 views 33 this week
2 commentsread comments
1 2 3 4 5
excellent!
x 4
Autoscroll
+/-
esc
set tempo
stop
Contributor
Difficulty
Tuning
intermediate
B F# B E G# C#
WARNING: You are trying to view
                                    content from Ultimate-Guitar.com
                                    in an unauthorized application,
                                    which is prohibited.

                                    Please use an official Ultimate
                                    Guitar Tabs application for iPhone,
                                    iPad or Android to access legitimate
                                    chords, guitar, bass, and drum tabs
                                    from Ultimate-Guitar.com database.

                                    Type "ultimate guitar tabs" in Apple
                                    App Store's or Android Market's
                                    search to find the application.
----------------------------------------------------------------------------
                               God Forsaken
                               Demon Hunter
----------------------------------------------------------------------------

What a sweet and long song. I love the guitar solo part 1. It is very interesting and is 
usually not what you find in this genre of music. It works perfect and is very 
entertaining. Enjoy!

Username: dkm817 (same on X box live)
Youtube Cover: http://www.youtube.com/watch?v=_skMy27UG1E
Email: guitardrums@rockfan.com

Guitar 1 Rhythmic     (B F# B E G# C#)
Guitar 2 Lead         (B F# B E G# C#)


Tab Guide...

===================================================================
(end of measures)

===================================================================
===================================================================
(end of parts)

===================================================================
===================================================================
===================================================================
(end of song)

(If there is a “continued” it is because the numbers could not
fit on 1 line.)


Intro 1

Guitar 2 (Fade In)
C#-----------------------------------------------------------------|
G#-7---7---7---7---7---7---7---7---7---7---7---7---9---9---9---9---|
E -x---x---x---x---x---x---x---x---x---x---x---x---x---x---x---x---|
B -4---4---4---4---4---4---4---4---4---4---4---4---6---6---6---6---|
F#-----------------------------------------------------------------|
B -----------------------------------------------------------------|

===================================================================

Guitar 2
C#-----------------------------------------------------------------|
G#-10--10--10--10--10--10--10--10--10--10--10--10--12--12--12--12--|
E -x---x---x---x---x---x---x---x---x---x---x---x---x---x---x---x---|
B -7---7---7---7---7---7---7---7---7---7---7---7---9---9---9---9---|
F#-----------------------------------------------------------------|
B -----------------------------------------------------------------|

===================================================================

Guitar 2
C#-----------------------------------------------------------------|
G#-------------------------------------------------7---7---7---7---|
E -9---9---9---9---9---9---9---9---9---9---9---9---x---x---x---x---|
B -x---x---x---x---x---x---x---x---x---x---x---x---4---4---4---4---|
F#-7---7---7---7---7---7---7---7---7---7---7---7-------------------|
B -----------------------------------------------------------------|

===================================================================

Guitar 2
C#-----------------------------------------------------------------|
G#-----------------------------------------------------------------|
E -7---7---7---7---7---7---7---7---7---7---7---7---9---9---9---9---|
B -x---x---x---x---x---x---x---x---x---x---x---x---x---x---x---x---|
F#-5---5---5---5---5---5---5---5---5---5---5---5---7---7---7---7---|
B -----------------------------------------------------------------|

===================================================================
===================================================================


Intro 2

Guitar 1
C#-----------------------------------------------------------------|
G#-----------------------------------------------------------------|
E -----------------------------------------------------------------|
B -4---4---4---4---4---4---4---4---4---4---4---4---6---6---6---6---|
F#-4---4---4---4---4---4---4---4---4---4---4---4---6---6---6---6---|
B -4---4---4---4---4---4---4---4---4---4---4---4---6---6---6---6---|

Guitar 2
C#-----------------------------------------------------------------|
G#-7---7---7---7---7---7---7---7---7---7---7---7---9---9---9---9---|
E -x---x---x---x---x---x---x---x---x---x---x---x---x---x---x---x---|
B -4---4---4---4---4---4---4---4---4---4---4---4---6---6---6---6---|
F#-----------------------------------------------------------------|
B -----------------------------------------------------------------|

===================================================================

Guitar 1
C#-----------------------------------------------------------------|
G#-----------------------------------------------------------------|
E -----------------------------------------------------------------|
B -7---7---7---7---7---7---7---7---7---7---7---7---9---9---9---9---|
F#-7---7---7---7---7---7---7---7---7---7---7---7---9---9---9---9---|
B -7---7---7---7---7---7---7---7---7---7---7---7---9---9---9---9---|

Guitar 2
C#-----------------------------------------------------------------|
G#-10--10--10--10--10--10--10--10--10--10--10--10--12--12--12--12--|
E -x---x---x---x---x---x---x---x---x---x---x---x---x---x---x---x---|
B -7---7---7---7---7---7---7---7---7---7---7---7---9---9---9---9---|
F#-----------------------------------------------------------------|
B -----------------------------------------------------------------|

===================================================================

Guitar 1
C#-----------------------------------------------------------------|
G#-----------------------------------------------------------------|
E -----------------------------------------------------------------|
B -2---2---2---2---2---2---2---2---2---2---2---2---4---4---4---4---|
F#-2---2---2---2---2---2---2---2---2---2---2---2---4---4---4---4---|
B -2---2---2---2---2---2---2---2---2---2---2---2---4---4---4---4---|

Guitar 2
C#-----------------------------------------------------------------|
G#-------------------------------------------------7---7---7---7---|
E -9---9---9---9---9---9---9---9---9---9---9---9---x---x---x---x---|
B -x---x---x---x---x---x---x---x---x---x---x---x---4---4---4---4---|
F#-7---7---7---7---7---7---7---7---7---7---7---7-------------------|
B -----------------------------------------------------------------|

===================================================================

Guitar 1
C#-----------------------------------------------------------------|
G#-----------------------------------------------------------------|
E -----------------------------------------------------------------|
B -0---0---0---0---0---0---0---0---0---0---0---0---2---2---2---2---|
F#-0---0---0---0---0---0---0---0---0---0---0---0---2---2---2---2---|
B -0---0---0---0---0---0---0---0---0---0---0---0---2---2---2---2---|

Guitar 2
C#-----------------------------------------------------------------|
G#-----------------------------------------------------------------|
E -7---7---7---7---7---7---7---7---7---7---7---7---9---9---9---9---|
B -x---x---x---x---x---x---x---x---x---x---x---x---x---x---x---x---|
F#-5---5---5---5---5---5---5---5---5---5---5---5---7---7---7---7---|
B -----------------------------------------------------------------|

===================================================================

Guitar 1
C#-----------------------------------------------------------------|
G#-----------------------------------------------------------------|
E -----------------------------------------------------------------|
B -4---4---4---4---4---4---4---4---4---4---4---4---6---6---6---6---|
F#-4---4---4---4---4---4---4---4---4---4---4---4---6---6---6---6---|
B -4---4---4---4---4---4---4---4---4---4---4---4---6---6---6---6---|

Guitar 2
C#-----------------------------------------------------------------|
G#-7---7---7---7---7---7---7---7---7---7---7---7---9---9---9---9---|
E -x---x---x---x---x---x---x---x---x---x---x---x---x---x---x---x---|
B -4---4---4---4---4---4---4---4---4---4---4---4---6---6---6---6---|
F#-----------------------------------------------------------------|
B -----------------------------------------------------------------|

===================================================================

Guitar 1
C#-----------------------------------------------------------------|
G#-----------------------------------------------------------------|
E -----------------------------------------------------------------|
B -7---7---7---7---7---7---7---7---7---7---7---7---9---9---9---9---|
F#-7---7---7---7---7---7---7---7---7---7---7---7---9---9---9---9---|
B -7---7---7---7---7---7---7---7---7---7---7---7---9---9---9---9---|

Guitar 2
C#-----------------------------------------------------------------|
G#-10--10--10--10--10--10--10--10--10--10--10--10--12--12--12--12--|
E -x---x---x---x---x---x---x---x---x---x---x---x---x---x---x---x---|
B -7---7---7---7---7---7---7---7---7---7---7---7---9---9---9---9---|
F#-----------------------------------------------------------------|
B -----------------------------------------------------------------|

===================================================================

Guitar 1
C#-----------------------------------------------------------------|
G#-----------------------------------------------------------------|
E -----------------------------------------------------------------|
B -2---2---2---2---2---2---2---2---2---2---2---2---4---4---4---4---|
F#-2---2---2---2---2---2---2---2---2---2---2---2---4---4---4---4---|
B -2---2---2---2---2---2---2---2---2---2---2---2---4---4---4---4---|

Guitar 2
C#-----------------------------------------------------------------|
G#-------------------------------------------------7---7---7---7---|
E -9---9---9---9---9---9---9---9---9---9---9---9---x---x---x---x---|
B -x---x---x---x---x---x---x---x---x---x---x---x---4---4---4---4---|
F#-7---7---7---7---7---7---7---7---7---7---7---7-------------------|
B -----------------------------------------------------------------|

===================================================================

Guitar 1
C#-----------------------------------------------------------------|
G#-----------------------------------------------------------------|
E -----------------------------------------------------------------|
B -0---0---0---0---0---0---0---0---0---0---0---0---2---2---2---2---|
F#-0---0---0---0---0---0---0---0---0---0---0---0---2---2---2---2---|
B -0---0---0---0---0---0---0---0---0---0---0---0---2---2---2---2---|

Guitar 2
C#-----------------------------------------------------------------|
G#-----------------------------------------------------------------|
E -7---7---7---7---7---7---7---7---7---7---7---7---9---9---9---9---|
B -x---x---x---x---x---x---x---x---x---x---x---x---x---x---x---x---|
F#-5---5---5---5---5---5---5---5---5---5---5---5---7---7---7---7---|
B -----------------------------------------------------------------|

===================================================================

Guitar 1
C#-----------------------------------------------------------------|
G#-----------------------------------------------------------------|
E -----------------------------------------------------------------|
B -4---4---4---4---4---4---4---4---4---4---4---4---6---6---6---6---|
F#-4---4---4---4---4---4---4---4---4---4---4---4---6---6---6---6---|
B -4---4---4---4---4---4---4---4---4---4---4---4---6---6---6---6---|

Guitar 2
C#-----------------------------------------------------------------|
G#-7---7---7---7---7---7---7---7---7---7---7---7---9---9---9---9---|
E -x---x---x---x---x---x---x---x---x---x---x---x---x---x---x---x---|
B -4---4---4---4---4---4---4---4---4---4---4---4---6---6---6---6---|
F#-----------------------------------------------------------------|
B -----------------------------------------------------------------|

===================================================================

Guitar 1
C#-----------------------------------------------------------------|
G#-----------------------------------------------------------------|
E -----------------------------------------------------------------|
B -7---7---7---7---7---7---7---7---7---7---7---7---9---9---9---9---|
F#-7---7---7---7---7---7---7---7---7---7---7---7---9---9---9---9---|
B -7---7---7---7---7---7---7---7---7---7---7---7---9---9---9---9---|

Guitar 2
C#-----------------------------------------------------------------|
G#-10--10--10--10--10--10--14--14--14--14--14--14--12--12--10--10--|
E -x---x---x---x---x---x---x---x---x---x---x---x---x---x---x---x---|
B -7---7---7---7---7---7---11--11--11--11--11--11--9---9---7---7---|
F#-----------------------------------------------------------------|
B -----------------------------------------------------------------|

===================================================================

Guitar 1
C#-----------------------------------------------------------------|
G#-----------------------------------------------------------------|
E -----------------------------------------------------------------|
B -2---2---2---2---2---2---2---2---2---2---2---2---4---4---4---4---|
F#-2---2---2---2---2---2---2---2---2---2---2---2---4---4---4---4---|
B -2---2---2---2---2---2---2---2---2---2---2---2---4---4---4---4---|

Guitar 2
C#-----------------------------------------------------------------|
G#-12--12--12--12--12--12--9---9---9---9---9---9---10--10--10--10--|
E -x---x---x---x---x---x---x---x---x---x---x---x---x---x---x---x---|
B -9---9---9---9---9---9---6---6---6---6---6---6---7---7---7---7---|
F#-----------------------------------------------------------------|
B -----------------------------------------------------------------|

===================================================================

Guitar 1
C#-----------------------------------------------------------------|
G#-----------------------------------------------------------------|
E -----------------------------------------------------------------|
B -0---0---0---0---0---0---0---0---0---0---0---0---2---2---2---2---|
F#-0---0---0---0---0---0---0---0---0---0---0---0---2---2---2---2---|
B -0---0---0---0---0---0---0---0---0---0---0---0---2---2---2---2---|

Guitar 2
C#-----------------------------------------------------------------|
G#-16--16--16--16--16--16--16--16--16--16--16--16--15--15--15--15--|
E -x---x---x---x---x---x---x---x---x---x---x---x---x---x---x---x---|
B -12--12--12--12--12--12--12--12--12--12--12--12--11--11--11--11--|
F#-----------------------------------------------------------------|
B -----------------------------------------------------------------|

===================================================================

Guitar 1
C#-----------------------------------------------------------------|
G#-----------------------------------------------------------------|
E -----------------------------------------------------------------|
B -4---4---4---4---4---4---4---4---4---4---4---4---6---6---6---6---|
F#-4---4---4---4---4---4---4---4---4---4---4---4---6---6---6---6---|
B -4---4---4---4---4---4---4---4---4---4---4---4---6---6---6---6---|

Guitar 2
C#-----------------------------------------------------------------|
G#-7---7---7---7---7---7---7---7---7---7---7---7---9---9---9---9---|
E -x---x---x---x---x---x---x---x---x---x---x---x---x---x---x---x---|
B -4---4---4---4---4---4---4---4---4---4---4---4---6---6---6---6---|
F#-----------------------------------------------------------------|
B -----------------------------------------------------------------|

===================================================================

Guitar 1
C#-----------------------------------------------------------------|
G#-----------------------------------------------------------------|
E -----------------------------------------------------------------|
B -7---7---7---7---7---7---7---7---7---7---7---7---9---9---9---9---|
F#-7---7---7---7---7---7---7---7---7---7---7---7---9---9---9---9---|
B -7---7---7---7---7---7---7---7---7---7---7---7---9---9---9---9---|

Guitar 2
C#-----------------------------------------------------------------|
G#-10--10--10--10--10--10--14--14--14--14--14--14--12--12--10--10--|
E -x---x---x---x---x---x---x---x---x---x---x---x---x---x---x---x---|
B -7---7---7---7---7---7---11--11--11--11--11--11--9---9---7---7---|
F#-----------------------------------------------------------------|
B -----------------------------------------------------------------|

===================================================================

Guitar 1
C#-----------------------------------------------------------------|
G#-----------------------------------------------------------------|
E -----------------------------------------------------------------|
B -2---2---2---2---2---2---2---2---2---2---2---2---4---4---4---4---|
F#-2---2---2---2---2---2---2---2---2---2---2---2---4---4---4---4---|
B -2---2---2---2---2---2---2---2---2---2---2---2---4---4---4---4---|

Guitar 2
C#-----------------------------------------------------------------|
G#-12--12--12--12--12--12--9---9---9---9---9---9---10--10--10--10--|
E -x---x---x---x---x---x---x---x---x---x---x---x---x---x---x---x---|
B -9---9---9---9---9---9---6---6---6---6---6---6---7---7---7---7---|
F#-----------------------------------------------------------------|
B -----------------------------------------------------------------|

===================================================================

Guitar 1
C#-----------------------------------------------------------------|
G#-----------------------------------------------------------------|
E -----------------------------------------------------------------|
B -0---0---0---0---0---0---0---0---0---0---0---0---2---2---2---2---|
F#-0---0---0---0---0---0---0---0---0---0---0---0---2---2---2---2---|
B -0---0---0---0---0---0---0---0---0---0---0---0---2---2---2---2---|

Guitar 2
C#-----------------------------------------------------------------|
G#-16--16--16--16--16--16--16--16--16--16--16--16--15--15--15--15--|
E -x---x---x---x---x---x---x---x---x---x---x---x---x---x---x---x---|
B -12--12--12--12--12--12--12--12--12--12--12--12--11--11--11--11--|
F#-----------------------------------------------------------------|
B -----------------------------------------------------------------|

===================================================================
===================================================================


Verse

Guitar 1 & 2
C#-----------------------------------------------------------------|
G#-----------------------------------------------------------------|
E -----------------------------------------------------------------|
B -4---4-----------4---4-----------4---4---------------------------|
F#-4---4-----------4---4-----------4---4-------------------2-------|
B -4---4-----------4---4-----------4---4-----------2---4-------4---|

===================================================================

Guitar 1 & 2
C#-----------------------------------------------------------------|
G#-----------------------------------------------------------------|
E -----------------------------------------------------------------|
B -----------------------------------------------------------------|
F#-----------------2-------------------------------4---4---4---4---|
B ---------2---4-------4-----------0---0---0---0-------------------|

===================================================================

Guitar 1 & 2
C#-----------------------------------------------------------------|
G#-----------------------------------------------------------------|
E -----------------------------------------------------------------|
B -4---4-----------4---4-----------4---4---------------------------|
F#-4---4-----------4---4-----------4---4-------------------2-------|
B -4---4-----------4---4-----------4---4-----------2---4-------4---|

===================================================================

Guitar 1 & 2
C#-----------------------------------------------------------------|
G#-----------------------------------------------------------------|
E -----------------------------------------------------------------|
B -----------------------------------------------------------------|
F#-----------------2-------------------------------4---4---4---4---|
B ---------2---4-------4-----------0---0---0---0-------------------|

===================================================================

Guitar 1
C#-----------------------------------------------------------------|
G#-----------------------------------------------------------------|
E -----------------------------------------------------------------|
B -4---4-----------4---4-----------4---4---------------------------|
F#-4---4-----------4---4-----------4---4-------------------2-------|
B -4---4-----------4---4-----------4---4-----------2---4-------4---|

Guitar 2
C#-----------------------------------------------------------------|
G#-7---7---7---7---7---7---7---7---7---7---7---7---7---7---7---7---|
E -x---x---x---x---x---x---x---x---x---x---x---x---x---x---x---x---|
B -4---4---4---4---4---4---4---4---4---4---4---4---4---4---4---4---|
F#-----------------------------------------------------------------|
B -----------------------------------------------------------------|

===================================================================

Guitar 1
C#-----------------------------------------------------------------|
G#-----------------------------------------------------------------|
E -----------------------------------------------------------------|
B -----------------------------------------------------------------|
F#-----------------2-------------------------------4---4---4---4---|
B ---------2---4-------4-----------0---0---0---0-------------------|

Guitar 2
C#-----------------------------------------------------------------|
G#-7---7---7---7---7---7---7---7---10--10--10--10--9---9---9---9---|
E -x---x---x---x---x---x---x---x---x---x---x---x---x---x---x---x---|
B -4---4---4---4---4---4---4---4---7---7---7---7---6---6---6---6---|
F#-----------------------------------------------------------------|
B -----------------------------------------------------------------|

===================================================================

Guitar 1
C#-----------------------------------------------------------------|
G#-----------------------------------------------------------------|
E -----------------------------------------------------------------|
B -4---4-----------4---4-----------4---4---------------------------|
F#-4---4-----------4---4-----------4---4-------------------2-------|
B -4---4-----------4---4-----------4---4-----------2---4-------4---|

Guitar 2
C#-----------------------------------------------------------------|
G#-7---7---7---7---7---7---7---7---7---7---7---7---7---7---7---7---|
E -x---x---x---x---x---x---x---x---x---x---x---x---x---x---x---x---|
B -4---4---4---4---4---4---4---4---4---4---4---4---4---4---4---4---|
F#-----------------------------------------------------------------|
B -----------------------------------------------------------------|

===================================================================

Guitar 1
C#-----------------------------------------------------------------|
G#-----------------------------------------------------------------|
E -----------------------------------------------------------------|
B -----------------------------------------------------------------|
F#-----------------2-------------------------------4---4---4---4---|
B ---------2---4-------4-----------0---0---0---0-------------------|

Guitar 2
C#-----------------------------------------------------------------|
G#-7---7---7---7---7---7---7---7---9---9---9---9---10--10--10--10--|
E -x---x---x---x---x---x---x---x---x---x---x---x---x---x---x---x---|
B -4---4---4---4---4---4---4---4---6---6---6---6---7---7---7---7---|
F#-----------------------------------------------------------------|
B -----------------------------------------------------------------|

===================================================================
===================================================================


Pre Chorus

Guitar 1
C#------------------------------------------------------------------|
G#------------------------------------------------------------------|
E -----------------7~~~\~~~~~~~-------------------------------------|
B -0---0---0---0---7~~~\~~~~~~~----------------------------6*~~~~~~-|
F#-0---0---0---0---5~~~\~~~~~~~--------------------5~~~~~~----------|
B -0---0---0---0---------------------------0~~~~~~------------------|
pm .   .   .   .

Guitar 2
C#------------------------------------------------------------------|
G#-----------------10~~~~~~~~~~--------------------10~~~~~-9~~~~~~~-|
E -----------------x---\---------------------------x-------x--------|
B -0---0---0---0---7~~~\~~~~~~~--------------------7~~~~~~-6~~~~~~~-|
F#-0---0---0---0----------------------------------------------------|
B -0---0---0---0---------------------------0~~~~~~------------------|
pm .   .   .   .

===================================================================

Guitar 1
C#-----------------------------------------------------------------|
G#-----------------------------------------------------------------|
E -----------------------------------------------------------------|
B -~~~~~~~-4~~~~~~~~~~~~~~-2~~~~~~~~~~~~~~-7~~~~~~~~~~~~~~-9~~~~~~-|
F#---------4~~~~~~~~~~~~~~-2~~~~~~~~~~~~~~-7~~~~~~~~~~~~~~-9~~~~~~-|
B ---------4~~~~~~~~~~~~~~-2~~~~~~~~~~~~~~-7~~~~~~~~~~~~~~-9~~~~~~-|

Guitar 2
C#-----------------------------------------------------------------|
G#-~~~~~~~-10~~~~~~~~~~~~~-9~~~~~~~~~~~~~~-10~~~~~~~~~~~~~-12~~~~~-|
E ---------x---------------x---------------x---------------x-------|
B -~~~~~~~-7~~~~~~~~~~~~~~-6~~~~~~~~~~~~~~-7~~~~~~~~~~~~~~-9~~~~~~-|
F#-----------------------------------------------------------------|
B -----------------------------------------------------------------|

===================================================================

Guitar 1
C#------------------------------------------------------------------|
G#------------------------------------------------------------------|
E -----------------7~~~\~~~~~~~-------------------------------------|
B -0---0---0---0---7~~~\~~~~~~~-------------------------------------|
F#-0---0---0---0---5~~~\~~~~~~~--------------------5~~~~~~----------|
B -0---0---0---0---------------------------0~~~~~~---------4*~~~~~~-|
pm .   .   .   .

Guitar 2
C#------------------------------------------------------------------|
G#-----------------10~~~~~~~~~~--------------------10~~~~~-9~~~~~~~-|
E -----------------x---\---------------------------x-------x--------|
B -0---0---0---0---7~~~\~~~~~~~--------------------7~~~~~~-6~~~~~~~-|
F#-0---0---0---0----------------------------------------------------|
B -0---0---0---0---------------------------0~~~~~~------------------|
pm .   .   .   .

===================================================================

Guitar 1
C#-----------------------------------------------------------------|
G#-----------------------------------------------------------------|
E -----------------------------------------------------------------|
B ---------4~~~~~~~~~~~~~~-2~~~~~~~~~~~~~~-4~~~~~~~~~~~~~~-2~~~~~~-|
F#---------4~~~~~~~~~~~~~~-2~~~~~~~~~~~~~~-4~~~~~~~~~~~~~~-2~~~~~~-|
B -~~~~~~~-4~~~~~~~~~~~~~~-2~~~~~~~~~~~~~~-4~~~~~~~~~~~~~~-2~~~~~~-|

Guitar 2
C#-----------------------------------------------------------------|
G#-~~~~~~~-7~~~~~~~~~~~~~~-5~~~~~~~~~~~~~~-7~~~~~~~~~~~~~~-5~~~~~~-|
E ---------x---------------x---------------x---------------x-------|
B -~~~~~~~-4~~~~~~~~~~~~~~-2~~~~~~~~~~~~~~-4~~~~~~~~~~~~~~-2~~~~~~-|
F#-----------------------------------------------------------------|
B -----------------------------------------------------------------|

===================================================================

Guitar 1
C#------------------------------------------------------------------|
G#------------------------------------------------------------------|
E -----------------7~~~\~~~~~~~-------------------------------------|
B -0---0---0---0---7~~~\~~~~~~~----------------------------6*~~~~~~-|
F#-0---0---0---0---5~~~\~~~~~~~--------------------5~~~~~~----------|
B -0---0---0---0---------------------------0~~~~~~------------------|
pm .   .   .   .

Guitar 2
C#------------------------------------------------------------------|
G#-----------------10~~~~~~~~~~--------------------10~~~~~-9~~~~~~~-|
E -----------------x---\---------------------------x-------x--------|
B -0---0---0---0---7~~~\~~~~~~~--------------------7~~~~~~-6~~~~~~~-|
F#-0---0---0---0----------------------------------------------------|
B -0---0---0---0---------------------------0~~~~~~------------------|
pm .   .   .   .

===================================================================

Guitar 1
C#-----------------------------------------------------------------|
G#-----------------------------------------------------------------|
E -----------------------------------------------------------------|
B -~~~~~~~-4~~~~~~~~~~~~~~-2~~~~~~~~~~~~~~-7~~~~~~~~~~~~~~-9~~~~~~-|
F#---------4~~~~~~~~~~~~~~-2~~~~~~~~~~~~~~-7~~~~~~~~~~~~~~-9~~~~~~-|
B ---------4~~~~~~~~~~~~~~-2~~~~~~~~~~~~~~-7~~~~~~~~~~~~~~-9~~~~~~-|

Guitar 2
C#-----------------------------------------------------------------|
G#-~~~~~~~-10~~~~~~~~~~~~~-9~~~~~~~~~~~~~~-10~~~~~~~~~~~~~-12~~~~~-|
E ---------x---------------x---------------x---------------x-------|
B -~~~~~~~-7~~~~~~~~~~~~~~-6~~~~~~~~~~~~~~-7~~~~~~~~~~~~~~-9~~~~~~-|
F#-----------------------------------------------------------------|
B -----------------------------------------------------------------|

===================================================================

Guitar 1
C#------------------------------------------------------------------|
G#------------------------------------------------------------------|
E -----------------7~~~\~~~~~~~-------------------------------------|
B -0---0---0---0---7~~~\~~~~~~~-------------------------------------|
F#-0---0---0---0---5~~~\~~~~~~~--------------------5~~~~~~----------|
B -0---0---0---0---------------------------0~~~~~~---------4*~~~~~~-|
pm .   .   .   .

Guitar 2
C#------------------------------------------------------------------|
G#-----------------10~~~~~~~~~~--------------------10~~~~~-9~~~~~~~-|
E -----------------x---\---------------------------x-------x--------|
B -0---0---0---0---7~~~\~~~~~~~--------------------7~~~~~~-6~~~~~~~-|
F#-0---0---0---0----------------------------------------------------|
B -0---0---0---0---------------------------0~~~~~~------------------|
pm .   .   .   .

===================================================================

Guitar 1
C#-----------------------------------------------------------------|
G#-----------------------------------------------------------------|
E -----------------------------------------------------------------|
B ---------4~~~~~~~~~~~~~~-2~~~~~~~~~~~~~~-4~~~~~~~~~~~~~~-7~~~~~~-|
F#---------4~~~~~~~~~~~~~~-2~~~~~~~~~~~~~~-4~~~~~~~~~~~~~~-7~~~~~~-|
B -~~~~~~~-4~~~~~~~~~~~~~~-2~~~~~~~~~~~~~~-4~~~~~~~~~~~~~~-7~~~~~~-|

Guitar 2
C#-----------------------------------------------------------------|
G#-~~~~~~~-7~~~~~~~~~~~~~~-5~~~~~~~~~~~~~~-7~~~~~~~~~~~~~~-10~~~~~-|
E ---------x---------------x---------------x---------------x-------|
B -~~~~~~~-4~~~~~~~~~~~~~~-2~~~~~~~~~~~~~~-4~~~~~~~~~~~~~~-7~~~~~~-|
F#-----------------------------------------------------------------|
B -----------------------------------------------------------------|

===================================================================
===================================================================


Chorus 1

Guitar 1
C#-----------------------------------------------------------------|
G#-----------------------------------------------------------------|
E -----------------------------------------------------------------|
B -4---4---4---4---4---4---4---4---4---4---4---4---6---6---6---6---|
F#-4---4---4---4---4---4---4---4---4---4---4---4---6---6---6---6---|
B -4---4---4---4---4---4---4---4---4---4---4---4---6---6---6---6---|

Guitar 2
C#-----------------------------------------------------------------|
G#-7---7---7---7---7---7---7---7---7---7---7---7---9---9---9---9---|
E -x---x---x---x---x---x---x---x---x---x---x---x---x---x---x---x---|
B -4---4---4---4---4---4---4---4---4---4---4---4---6---6---6---6---|
F#-----------------------------------------------------------------|
B -----------------------------------------------------------------|

===================================================================

Guitar 1
C#-----------------------------------------------------------------|
G#-----------------------------------------------------------------|
E -----------------------------------------------------------------|
B -7---7---7---7---7---7---7---7---7---7---7---7---9---9---9---9---|
F#-7---7---7---7---7---7---7---7---7---7---7---7---9---9---9---9---|
B -7---7---7---7---7---7---7---7---7---7---7---7---9---9---9---9---|

Guitar 2
C#-----------------------------------------------------------------|
G#-10--10--10--10--10--10--10--10--10--10--10--10--12--12--12--12--|
E -x---x---x---x---x---x---x---x---x---x---x---x---x---x---x---x---|
B -7---7---7---7---7---7---7---7---7---7---7---7---9---9---9---9---|
F#-----------------------------------------------------------------|
B -----------------------------------------------------------------|

===================================================================

Guitar 1
C#-----------------------------------------------------------------|
G#-----------------------------------------------------------------|
E -----------------------------------------------------------------|
B -2---2---2---2---2---2---2---2---2---2---2---2---4---4---4---4---|
F#-2---2---2---2---2---2---2---2---2---2---2---2---4---4---4---4---|
B -2---2---2---2---2---2---2---2---2---2---2---2---4---4---4---4---|

Guitar 2
C#-----------------------------------------------------------------|
G#-------------------------------------------------7---7---7---7---|
E -9---9---9---9---9---9---9---9---9---9---9---9---x---x---x---x---|
B -x---x---x---x---x---x---x---x---x---x---x---x---4---4---4---4---|
F#-7---7---7---7---7---7---7---7---7---7---7---7-------------------|
B -----------------------------------------------------------------|

===================================================================

Guitar 1
C#-----------------------------------------------------------------|
G#-----------------------------------------------------------------|
E -----------------------------------------------------------------|
B -0---0---0---0---0---0---0---0---0---0---0---0---2---2---2---2---|
F#-0---0---0---0---0---0---0---0---0---0---0---0---2---2---2---2---|
B -0---0---0---0---0---0---0---0---0---0---0---0---2---2---2---2---|

Guitar 2
C#-----------------------------------------------------------------|
G#-----------------------------------------------------------------|
E -7---7---7---7---7---7---7---7---7---7---7---7---9---9---9---9---|
B -x---x---x---x---x---x---x---x---x---x---x---x---x---x---x---x---|
F#-5---5---5---5---5---5---5---5---5---5---5---5---7---7---7---7---|
B -----------------------------------------------------------------|

===================================================================

Guitar 1
C#-----------------------------------------------------------------|
G#-----------------------------------------------------------------|
E -----------------------------------------------------------------|
B -4---4---4---4---4---4---4---4---4---4---4---4---6---6---6---6---|
F#-4---4---4---4---4---4---4---4---4---4---4---4---6---6---6---6---|
B -4---4---4---4---4---4---4---4---4---4---4---4---6---6---6---6---|

Guitar 2
C#-----------------------------------------------------------------|
G#-7---7---7---7---7---7---7---7---7---7---7---7---9---9---9---9---|
E -x---x---x---x---x---x---x---x---x---x---x---x---x---x---x---x---|
B -4---4---4---4---4---4---4---4---4---4---4---4---6---6---6---6---|
F#-----------------------------------------------------------------|
B -----------------------------------------------------------------|

===================================================================

Guitar 1
C#-----------------------------------------------------------------|
G#-----------------------------------------------------------------|
E -----------------------------------------------------------------|
B -7---7---7---7---7---7---7---7---7---7---7---7---9---9---9---9---|
F#-7---7---7---7---7---7---7---7---7---7---7---7---9---9---9---9---|
B -7---7---7---7---7---7---7---7---7---7---7---7---9---9---9---9---|

Guitar 2
C#-----------------------------------------------------------------|
G#-10--10--10--10--10--10--10--10--10--10--10--10--12--12--12--12--|
E -x---x---x---x---x---x---x---x---x---x---x---x---x---x---x---x---|
B -7---7---7---7---7---7---7---7---7---7---7---7---9---9---9---9---|
F#-----------------------------------------------------------------|
B -----------------------------------------------------------------|

===================================================================

Guitar 1
C#-----------------------------------------------------------------|
G#-----------------------------------------------------------------|
E -----------------------------------------------------------------|
B -2---2---2---2---2---2---2---2---2---2---2---2---4---4---4---4---|
F#-2---2---2---2---2---2---2---2---2---2---2---2---4---4---4---4---|
B -2---2---2---2---2---2---2---2---2---2---2---2---4---4---4---4---|

Guitar 2
C#-----------------------------------------------------------------|
G#-------------------------------------------------7---7---7---7---|
E -9---9---9---9---9---9---9---9---9---9---9---9---x---x---x---x---|
B -x---x---x---x---x---x---x---x---x---x---x---x---4---4---4---4---|
F#-7---7---7---7---7---7---7---7---7---7---7---7-------------------|
B -----------------------------------------------------------------|

===================================================================

Guitar 1
C#-----------------------------------------------------------------|
G#-----------------------------------------------------------------|
E -----------------------------------------------------------------|
B -0---0---0---0---0---0---0---0---0---0---0---0---2---2---2---2---|
F#-0---0---0---0---0---0---0---0---0---0---0---0---2---2---2---2---|
B -0---0---0---0---0---0---0---0---0---0---0---0---2---2---2---2---|

Guitar 2
C#-----------------------------------------------------------------|
G#-----------------------------------------------------------------|
E -7---7---7---7---7---7---7---7---7---7---7---7---9---9---9---9---|
B -x---x---x---x---x---x---x---x---x---x---x---x---x---x---x---x---|
F#-5---5---5---5---5---5---5---5---5---5---5---5---7---7---7---7---|
B -----------------------------------------------------------------|

===================================================================

Guitar 1
C#-----------------------------------------------------------------|
G#-----------------------------------------------------------------|
E -----------------------------------------------------------------|
B -4---4---4---4---4---4---4---4---4---4---4---4---6---6---6---6---|
F#-4---4---4---4---4---4---4---4---4---4---4---4---6---6---6---6---|
B -4---4---4---4---4---4---4---4---4---4---4---4---6---6---6---6---|

Guitar 2
C#-----------------------------------------------------------------|
G#-7---7---7---7---7---7---7---7---7---7---7---7---9---9---9---9---|
E -x---x---x---x---x---x---x---x---x---x---x---x---x---x---x---x---|
B -4---4---4---4---4---4---4---4---4---4---4---4---6---6---6---6---|
F#-----------------------------------------------------------------|
B -----------------------------------------------------------------|

===================================================================

Guitar 1
C#-----------------------------------------------------------------|
G#-----------------------------------------------------------------|
E -----------------------------------------------------------------|
B -7---7---7---7---7---7---7---7---7---7---7---7---9---9---9---9---|
F#-7---7---7---7---7---7---7---7---7---7---7---7---9---9---9---9---|
B -7---7---7---7---7---7---7---7---7---7---7---7---9---9---9---9---|

Guitar 2
C#-----------------------------------------------------------------|
G#-10--10--10--10--10--10--14--14--14--14--14--14--12--12--10--10--|
E -x---x---x---x---x---x---x---x---x---x---x---x---x---x---x---x---|
B -7---7---7---7---7---7---11--11--11--11--11--11--9---9---7---7---|
F#-----------------------------------------------------------------|
B -----------------------------------------------------------------|

===================================================================

Guitar 1
C#-----------------------------------------------------------------|
G#-----------------------------------------------------------------|
E -----------------------------------------------------------------|
B -2---2---2---2---2---2---2---2---2---2---2---2---4---4---4---4---|
F#-2---2---2---2---2---2---2---2---2---2---2---2---4---4---4---4---|
B -2---2---2---2---2---2---2---2---2---2---2---2---4---4---4---4---|

Guitar 2
C#-----------------------------------------------------------------|
G#-12--12--12--12--12--12--9---9---9---9---9---9---10--10--10--10--|
E -x---x---x---x---x---x---x---x---x---x---x---x---x---x---x---x---|
B -9---9---9---9---9---9---6---6---6---6---6---6---7---7---7---7---|
F#-----------------------------------------------------------------|
B -----------------------------------------------------------------|

===================================================================

Guitar 1
C#-----------------------------------------------------------------|
G#-----------------------------------------------------------------|
E -----------------------------------------------------------------|
B -0---0---0---0---0---0---0---0---0---0---0---0---2---2---2---2---|
F#-0---0---0---0---0---0---0---0---0---0---0---0---2---2---2---2---|
B -0---0---0---0---0---0---0---0---0---0---0---0---2---2---2---2---|

Guitar 2
C#-----------------------------------------------------------------|
G#-16--16--16--16--16--16--16--16--16--16--16--16--15--15--15--15--|
E -x---x---x---x---x---x---x---x---x---x---x---x---x---x---x---x---|
B -12--12--12--12--12--12--12--12--12--12--12--12--11--11--11--11--|
F#-----------------------------------------------------------------|
B -----------------------------------------------------------------|

===================================================================

Guitar 1
C#-----------------------------------------------------------------|
G#-----------------------------------------------------------------|
E -----------------------------------------------------------------|
B -4---4---4---4---4---4---4---4---4---4---4---4---6---6---6---6---|
F#-4---4---4---4---4---4---4---4---4---4---4---4---6---6---6---6---|
B -4---4---4---4---4---4---4---4---4---4---4---4---6---6---6---6---|

Guitar 2
C#-----------------------------------------------------------------|
G#-7---7---7---7---7---7---7---7---7---7---7---7---9---9---9---9---|
E -x---x---x---x---x---x---x---x---x---x---x---x---x---x---x---x---|
B -4---4---4---4---4---4---4---4---4---4---4---4---6---6---6---6---|
F#-----------------------------------------------------------------|
B -----------------------------------------------------------------|

===================================================================

Guitar 1
C#-----------------------------------------------------------------|
G#-----------------------------------------------------------------|
E -----------------------------------------------------------------|
B -7---7---7---7---7---7---7---7---7---7---7---7---9---9---9---9---|
F#-7---7---7---7---7---7---7---7---7---7---7---7---9---9---9---9---|
B -7---7---7---7---7---7---7---7---7---7---7---7---9---9---9---9---|

Guitar 2
C#-----------------------------------------------------------------|
G#-10--10--10--10--10--10--14--14--14--14--14--14--12--12--10--10--|
E -x---x---x---x---x---x---x---x---x---x---x---x---x---x---x---x---|
B -7---7---7---7---7---7---11--11--11--11--11--11--9---9---7---7---|
F#-----------------------------------------------------------------|
B -----------------------------------------------------------------|

===================================================================

Guitar 1
C#-----------------------------------------------------------------|
G#-----------------------------------------------------------------|
E -----------------------------------------------------------------|
B -2---2---2---2---2---2---2---2---2---2---2---2---4---4---4---4---|
F#-2---2---2---2---2---2---2---2---2---2---2---2---4---4---4---4---|
B -2---2---2---2---2---2---2---2---2---2---2---2---4---4---4---4---|

Guitar 2
C#-----------------------------------------------------------------|
G#-12--12--12--12--12--12--9---9---9---9---9---9---10--10--10--10--|
E -x---x---x---x---x---x---x---x---x---x---x---x---x---x---x---x---|
B -9---9---9---9---9---9---6---6---6---6---6---6---7---7---7---7---|
F#-----------------------------------------------------------------|
B -----------------------------------------------------------------|

===================================================================

Guitar 1
C#-----------------------------------------------------------------|
G#-----------------------------------------------------------------|
E -----------------------------------------------------------------|
B -0---0---0---0---0---0---0---0---0---0---0---0---2---2---2---2---|
F#-0---0---0---0---0---0---0---0---0---0---0---0---2---2---2---2---|
B -0---0---0---0---0---0---0---0---0---0---0---0---2---2---2---2---|

Guitar 2
C#-----------------------------------------------------------------|
G#-16--16--16--16--16--16--16--16--16--16--16--16--15--15--15--15--|
E -x---x---x---x---x---x---x---x---x---x---x---x---x---x---x---x---|
B -12--12--12--12--12--12--12--12--12--12--12--12--11--11--11--11--|
F#-----------------------------------------------------------------|
B -----------------------------------------------------------------|

===================================================================
===================================================================


Bridge

Guitar 1 & 2
C#-----------------------------------------------------------------|
G#-----------------------------------------------------------------|
E ---------------------------------------------------------4*~~~~~-|
B -4---4-----------4---4-----------4---4---------------------------|
F#-4---4-----------4---4-----------4---4---------------------------|
B -4---4-----------4---4-----------4---4-----------2---4-----------|

===================================================================
===================================================================


Verse

Guitar 1 & 2
C#-----------------------------------------------------------------|
G#-----------------------------------------------------------------|
E -----------------------------------------------------------------|
B -4---4-----------4---4-----------4---4---------------------------|
F#-4---4-----------4---4-----------4---4-------------------2-------|
B -4---4-----------4---4-----------4---4-----------2---4-------4---|

===================================================================

Guitar 1 & 2
C#-----------------------------------------------------------------|
G#-----------------------------------------------------------------|
E -----------------------------------------------------------------|
B -----------------------------------------------------------------|
F#-----------------2-------------------------------4---4---4---4---|
B ---------2---4-------4-----------0---0---0---0-------------------|

===================================================================

Guitar 1 & 2
C#-----------------------------------------------------------------|
G#-----------------------------------------------------------------|
E -----------------------------------------------------------------|
B -4---4-----------4---4-----------4---4---------------------------|
F#-4---4-----------4---4-----------4---4-------------------2-------|
B -4---4-----------4---4-----------4---4-----------2---4-------4---|

===================================================================

Guitar 1 & 2
C#-----------------------------------------------------------------|
G#-----------------------------------------------------------------|
E -----------------------------------------------------------------|
B -----------------------------------------------------------------|
F#-----------------2-------------------------------4---4---4---4---|
B ---------2---4-------4-----------0---0---0---0-------------------|

===================================================================

Guitar 1
C#-----------------------------------------------------------------|
G#-----------------------------------------------------------------|
E -----------------------------------------------------------------|
B -4---4-----------4---4-----------4---4---------------------------|
F#-4---4-----------4---4-----------4---4-------------------2-------|
B -4---4-----------4---4-----------4---4-----------2---4-------4---|

Guitar 2
C#-----------------------------------------------------------------|
G#-7---7---7---7---7---7---7---7---7---7---7---7---7---7---7---7---|
E -x---x---x---x---x---x---x---x---x---x---x---x---x---x---x---x---|
B -4---4---4---4---4---4---4---4---4---4---4---4---4---4---4---4---|
F#-----------------------------------------------------------------|
B -----------------------------------------------------------------|

===================================================================

Guitar 1
C#-----------------------------------------------------------------|
G#-----------------------------------------------------------------|
E -----------------------------------------------------------------|
B -----------------------------------------------------------------|
F#-----------------2-------------------------------4---4---4---4---|
B ---------2---4-------4-----------0---0---0---0-------------------|

Guitar 2
C#-----------------------------------------------------------------|
G#-7---7---7---7---7---7---7---7---10--10--10--10--9---9---9---9---|
E -x---x---x---x---x---x---x---x---x---x---x---x---x---x---x---x---|
B -4---4---4---4---4---4---4---4---7---7---7---7---6---6---6---6---|
F#-----------------------------------------------------------------|
B -----------------------------------------------------------------|

===================================================================

Guitar 1
C#-----------------------------------------------------------------|
G#-----------------------------------------------------------------|
E -----------------------------------------------------------------|
B -4---4-----------4---4-----------4---4---------------------------|
F#-4---4-----------4---4-----------4---4-------------------2-------|
B -4---4-----------4---4-----------4---4-----------2---4-------4---|

Guitar 2
C#-----------------------------------------------------------------|
G#-7---7---7---7---7---7---7---7---7---7---7---7---7---7---7---7---|
E -x---x---x---x---x---x---x---x---x---x---x---x---x---x---x---x---|
B -4---4---4---4---4---4---4---4---4---4---4---4---4---4---4---4---|
F#-----------------------------------------------------------------|
B -----------------------------------------------------------------|

===================================================================

Guitar 1
C#-----------------------------------------------------------------|
G#-----------------------------------------------------------------|
E -----------------------------------------------------------------|
B -----------------------------------------------------------------|
F#-----------------2-------------------------------4---4---4---4---|
B ---------2---4-------4-----------0---0---0---0-------------------|

Guitar 2
C#-----------------------------------------------------------------|
G#-7---7---7---7---7---7---7---7---9---9---9---9---10--10--10--10--|
E -x---x---x---x---x---x---x---x---x---x---x---x---x---x---x---x---|
B -4---4---4---4---4---4---4---4---6---6---6---6---7---7---7---7---|
F#-----------------------------------------------------------------|
B -----------------------------------------------------------------|

===================================================================
===================================================================


Pre Chorus

Guitar 1
C#------------------------------------------------------------------|
G#------------------------------------------------------------------|
E -----------------7~~~\~~~~~~~-------------------------------------|
B -0---0---0---0---7~~~\~~~~~~~----------------------------6*~~~~~~-|
F#-0---0---0---0---5~~~\~~~~~~~--------------------5~~~~~~----------|
B -0---0---0---0---------------------------0~~~~~~------------------|
pm .   .   .   .

Guitar 2
C#------------------------------------------------------------------|
G#-----------------10~~~~~~~~~~--------------------10~~~~~-9~~~~~~~-|
E -----------------x---\---------------------------x-------x--------|
B -0---0---0---0---7~~~\~~~~~~~--------------------7~~~~~~-6~~~~~~~-|
F#-0---0---0---0----------------------------------------------------|
B -0---0---0---0---------------------------0~~~~~~------------------|
pm .   .   .   .

===================================================================

Guitar 1
C#-----------------------------------------------------------------|
G#-----------------------------------------------------------------|
E -----------------------------------------------------------------|
B -~~~~~~~-4~~~~~~~~~~~~~~-2~~~~~~~~~~~~~~-7~~~~~~~~~~~~~~-9~~~~~~-|
F#---------4~~~~~~~~~~~~~~-2~~~~~~~~~~~~~~-7~~~~~~~~~~~~~~-9~~~~~~-|
B ---------4~~~~~~~~~~~~~~-2~~~~~~~~~~~~~~-7~~~~~~~~~~~~~~-9~~~~~~-|

Guitar 2
C#-----------------------------------------------------------------|
G#-~~~~~~~-10~~~~~~~~~~~~~-9~~~~~~~~~~~~~~-10~~~~~~~~~~~~~-12~~~~~-|
E ---------x---------------x---------------x---------------x-------|
B -~~~~~~~-7~~~~~~~~~~~~~~-6~~~~~~~~~~~~~~-7~~~~~~~~~~~~~~-9~~~~~~-|
F#-----------------------------------------------------------------|
B -----------------------------------------------------------------|

===================================================================

Guitar 1
C#------------------------------------------------------------------|
G#------------------------------------------------------------------|
E -----------------7~~~\~~~~~~~-------------------------------------|
B -0---0---0---0---7~~~\~~~~~~~-------------------------------------|
F#-0---0---0---0---5~~~\~~~~~~~--------------------5~~~~~~----------|
B -0---0---0---0---------------------------0~~~~~~---------4*~~~~~~-|
pm .   .   .   .

Guitar 2
C#------------------------------------------------------------------|
G#-----------------10~~~~~~~~~~--------------------10~~~~~-9~~~~~~~-|
E -----------------x---\---------------------------x-------x--------|
B -0---0---0---0---7~~~\~~~~~~~--------------------7~~~~~~-6~~~~~~~-|
F#-0---0---0---0----------------------------------------------------|
B -0---0---0---0---------------------------0~~~~~~------------------|
pm .   .   .   .

===================================================================

Guitar 1
C#-----------------------------------------------------------------|
G#-----------------------------------------------------------------|
E -----------------------------------------------------------------|
B ---------4~~~~~~~~~~~~~~-2~~~~~~~~~~~~~~-4~~~~~~~~~~~~~~-2~~~~~~-|
F#---------4~~~~~~~~~~~~~~-2~~~~~~~~~~~~~~-4~~~~~~~~~~~~~~-2~~~~~~-|
B -~~~~~~~-4~~~~~~~~~~~~~~-2~~~~~~~~~~~~~~-4~~~~~~~~~~~~~~-2~~~~~~-|

Guitar 2
C#-----------------------------------------------------------------|
G#-~~~~~~~-7~~~~~~~~~~~~~~-5~~~~~~~~~~~~~~-7~~~~~~~~~~~~~~-5~~~~~~-|
E ---------x---------------x---------------x---------------x-------|
B -~~~~~~~-4~~~~~~~~~~~~~~-2~~~~~~~~~~~~~~-4~~~~~~~~~~~~~~-2~~~~~~-|
F#-----------------------------------------------------------------|
B -----------------------------------------------------------------|

===================================================================

Guitar 1
C#------------------------------------------------------------------|
G#------------------------------------------------------------------|
E -----------------7~~~\~~~~~~~-------------------------------------|
B -0---0---0---0---7~~~\~~~~~~~----------------------------6*~~~~~~-|
F#-0---0---0---0---5~~~\~~~~~~~--------------------5~~~~~~----------|
B -0---0---0---0---------------------------0~~~~~~------------------|
pm .   .   .   .

Guitar 2
C#------------------------------------------------------------------|
G#-----------------10~~~~~~~~~~--------------------10~~~~~-9~~~~~~~-|
E -----------------x---\---------------------------x-------x--------|
B -0---0---0---0---7~~~\~~~~~~~--------------------7~~~~~~-6~~~~~~~-|
F#-0---0---0---0----------------------------------------------------|
B -0---0---0---0---------------------------0~~~~~~------------------|
pm .   .   .   .

===================================================================

Guitar 1
C#-----------------------------------------------------------------|
G#-----------------------------------------------------------------|
E -----------------------------------------------------------------|
B -~~~~~~~-4~~~~~~~~~~~~~~-2~~~~~~~~~~~~~~-7~~~~~~~~~~~~~~-9~~~~~~-|
F#---------4~~~~~~~~~~~~~~-2~~~~~~~~~~~~~~-7~~~~~~~~~~~~~~-9~~~~~~-|
B ---------4~~~~~~~~~~~~~~-2~~~~~~~~~~~~~~-7~~~~~~~~~~~~~~-9~~~~~~-|

Guitar 2
C#-----------------------------------------------------------------|
G#-~~~~~~~-10~~~~~~~~~~~~~-9~~~~~~~~~~~~~~-10~~~~~~~~~~~~~-12~~~~~-|
E ---------x---------------x---------------x---------------x-------|
B -~~~~~~~-7~~~~~~~~~~~~~~-6~~~~~~~~~~~~~~-7~~~~~~~~~~~~~~-9~~~~~~-|
F#-----------------------------------------------------------------|
B -----------------------------------------------------------------|

===================================================================

Guitar 1
C#------------------------------------------------------------------|
G#------------------------------------------------------------------|
E -----------------7~~~\~~~~~~~-------------------------------------|
B -0---0---0---0---7~~~\~~~~~~~-------------------------------------|
F#-0---0---0---0---5~~~\~~~~~~~--------------------5~~~~~~----------|
B -0---0---0---0---------------------------0~~~~~~---------4*~~~~~~-|
pm .   .   .   .

Guitar 2
C#------------------------------------------------------------------|
G#-----------------10~~~~~~~~~~--------------------10~~~~~-9~~~~~~~-|
E -----------------x---\---------------------------x-------x--------|
B -0---0---0---0---7~~~\~~~~~~~--------------------7~~~~~~-6~~~~~~~-|
F#-0---0---0---0----------------------------------------------------|
B -0---0---0---0---------------------------0~~~~~~------------------|
pm .   .   .   .

===================================================================

Guitar 1
C#-----------------------------------------------------------------|
G#-----------------------------------------------------------------|
E -----------------------------------------------------------------|
B ---------4~~~~~~~~~~~~~~-2~~~~~~~~~~~~~~-4~~~~~~~~~~~~~~-7~~~~~~-|
F#---------4~~~~~~~~~~~~~~-2~~~~~~~~~~~~~~-4~~~~~~~~~~~~~~-7~~~~~~-|
B -~~~~~~~-4~~~~~~~~~~~~~~-2~~~~~~~~~~~~~~-4~~~~~~~~~~~~~~-7~~~~~~-|

Guitar 2
C#-----------------------------------------------------------------|
G#-~~~~~~~-7~~~~~~~~~~~~~~-5~~~~~~~~~~~~~~-7~~~~~~~~~~~~~~-10~~~~~-|
E ---------x---------------x---------------x---------------x-------|
B -~~~~~~~-4~~~~~~~~~~~~~~-2~~~~~~~~~~~~~~-4~~~~~~~~~~~~~~-7~~~~~~-|
F#-----------------------------------------------------------------|
B -----------------------------------------------------------------|

===================================================================
===================================================================


Chorus 1

Guitar 1
C#-----------------------------------------------------------------|
G#-----------------------------------------------------------------|
E -----------------------------------------------------------------|
B -4---4---4---4---4---4---4---4---4---4---4---4---6---6---6---6---|
F#-4---4---4---4---4---4---4---4---4---4---4---4---6---6---6---6---|
B -4---4---4---4---4---4---4---4---4---4---4---4---6---6---6---6---|

Guitar 2
C#-----------------------------------------------------------------|
G#-7---7---7---7---7---7---7---7---7---7---7---7---9---9---9---9---|
E -x---x---x---x---x---x---x---x---x---x---x---x---x---x---x---x---|
B -4---4---4---4---4---4---4---4---4---4---4---4---6---6---6---6---|
F#-----------------------------------------------------------------|
B -----------------------------------------------------------------|

===================================================================

Guitar 1
C#-----------------------------------------------------------------|
G#-----------------------------------------------------------------|
E -----------------------------------------------------------------|
B -7---7---7---7---7---7---7---7---7---7---7---7---9---9---9---9---|
F#-7---7---7---7---7---7---7---7---7---7---7---7---9---9---9---9---|
B -7---7---7---7---7---7---7---7---7---7---7---7---9---9---9---9---|

Guitar 2
C#-----------------------------------------------------------------|
G#-10--10--10--10--10--10--10--10--10--10--10--10--12--12--12--12--|
E -x---x---x---x---x---x---x---x---x---x---x---x---x---x---x---x---|
B -7---7---7---7---7---7---7---7---7---7---7---7---9---9---9---9---|
F#-----------------------------------------------------------------|
B -----------------------------------------------------------------|

===================================================================

Guitar 1
C#-----------------------------------------------------------------|
G#-----------------------------------------------------------------|
E -----------------------------------------------------------------|
B -2---2---2---2---2---2---2---2---2---2---2---2---4---4---4---4---|
F#-2---2---2---2---2---2---2---2---2---2---2---2---4---4---4---4---|
B -2---2---2---2---2---2---2---2---2---2---2---2---4---4---4---4---|

Guitar 2
C#-----------------------------------------------------------------|
G#-------------------------------------------------7---7---7---7---|
E -9---9---9---9---9---9---9---9---9---9---9---9---x---x---x---x---|
B -x---x---x---x---x---x---x---x---x---x---x---x---4---4---4---4---|
F#-7---7---7---7---7---7---7---7---7---7---7---7-------------------|
B -----------------------------------------------------------------|

===================================================================

Guitar 1
C#-----------------------------------------------------------------|
G#-----------------------------------------------------------------|
E -----------------------------------------------------------------|
B -0---0---0---0---0---0---0---0---0---0---0---0---2---2---2---2---|
F#-0---0---0---0---0---0---0---0---0---0---0---0---2---2---2---2---|
B -0---0---0---0---0---0---0---0---0---0---0---0---2---2---2---2---|

Guitar 2
C#-----------------------------------------------------------------|
G#-----------------------------------------------------------------|
E -7---7---7---7---7---7---7---7---7---7---7---7---9---9---9---9---|
B -x---x---x---x---x---x---x---x---x---x---x---x---x---x---x---x---|
F#-5---5---5---5---5---5---5---5---5---5---5---5---7---7---7---7---|
B -----------------------------------------------------------------|

===================================================================

Guitar 1
C#-----------------------------------------------------------------|
G#-----------------------------------------------------------------|
E -----------------------------------------------------------------|
B -4---4---4---4---4---4---4---4---4---4---4---4---6---6---6---6---|
F#-4---4---4---4---4---4---4---4---4---4---4---4---6---6---6---6---|
B -4---4---4---4---4---4---4---4---4---4---4---4---6---6---6---6---|

Guitar 2
C#-----------------------------------------------------------------|
G#-7---7---7---7---7---7---7---7---7---7---7---7-
2 comments total.
0 reply
Zaine Sky wrote on July 23 2013, 05:15 pm

Amazing tab. Gave 5 stars.

0 reply
adtrfanboy1 wrote on February 9 2014, 04:02 am

Perfect! Such a good job bro!

I want to post or [tab]
guest
You may want to rate the tab now too:
select rating
Please do not post tabs as comments. Select "correction" instead!