Oops, an error
Loading. Please wait.

My Destiny Tab

3,486 views 18 this week
3 commentsread comments
1 2 3 4 5
accurate
x 5
Autoscroll
+/-
esc
set tempo
stop
Contributor
Difficulty
Tuning
intermediate
B F# B E G# C#
WARNING: You are trying to view
                                    content from Ultimate-Guitar.com
                                    in an unauthorized application,
                                    which is prohibited.

                                    Please use an official Ultimate
                                    Guitar Tabs application for iPhone,
                                    iPad or Android to access legitimate
                                    chords, guitar, bass, and drum tabs
                                    from Ultimate-Guitar.com database.

                                    Type "ultimate guitar tabs" in Apple
                                    App Store's or Android Market's
                                    search to find the application.
----------------------------------------------------------------------------
                             My Destiny
                            Demon Hunter
----------------------------------------------------------------------------

I’m impressed by this song. It is so heavy and very enjoyable. Not a difficult
solo, but is still very fun. Demon Hunter always knows how to keep the fans interested. Enjoy!

Username: dkm817 (same on X box live)
Youtube Cover: http://www.youtube.com/watch?v=bkOPC-6EsYs
Email: guitardrums@rockfan.com

Guitar 1 Rhythmic (B  F# B  E  G# C#)
Guitar 2 Lead     (B  F# B  E  G# C#)

Tab Guide...
===================================================================
(end of measures)

===================================================================
===================================================================
(end of parts)

===================================================================
===================================================================
===================================================================
(end of song)
(If there is a “continued” it is because the numbers could not
fit on 1 line or connecting times played.)


Intro 1

Guitar 1
C#-----------------------------------------------------------------|
G#-----------------------------------------------------------------|
E -----------------------------------------------------------------|
B -0~~~~~~~~~~~~~~~~~~~~~~~~~~~~~~~~~~~~~~~~~~~~~~~~~~~~~~~~~~~~~~-|
F#-0~~~~~~~~~~~~~~~~~~~~~~~~~~~~~~~~~~~~~~~~~~~~~~~~~~~~~~~~~~~~~~-|
B -0~~~~~~~~~~~~~~~~~~~~~~~~~~~~~~~~~~~~~~~~~~~~~~~~~~~~~~~~~~~~~~-|

Guitar 2
C#-----------------------------------------------------------------|
G#-----------------------------------------------------------------|
E -----------------------------------------------------------------|
B -7-7-0-0-7-7-8-8-7-7-0-0-7-7-8-8-5-5-0-0-5-5-7-7-8-8-8-8-8-8-8-8-|
F#-----------------------------------------------------------------|
B -----------------------------------------------------------------|
Pm . . . . . . . . . . . . . . . . . . . . . . . . . . . . . . . .

===================================================================

Guitar 1
C#-----------------------------------------------------------------|
G#-----------------------------------------------------------------|
E -----------------------------------------------------------------|
B -------------------------------------------------ps\~~~~~~~~~~~~-|
F#-------------------------------------------------ps\~~~~~~~~~~~~-|
B -------------------------------------------------ps\~~~~~~~~~~~~-|

Guitar 2
C#-----------------------------------------------------------------|
G#-----------------------------------------------------------------|
E -----------------------------------------------------------------|
B -7-7-0-0-7-7-8-8-7-7-0-0-7-7-8-8-5-5-0-0-5-5-7-7-8-8-8-8-8-8-8-8-|
F#-----------------------------------------------------------------|
B -----------------------------------------------------------------|
Pm . . . . . . . . . . . . . . . . . . . . . . . . . . . . . . . .

===================================================================

Guitar 1
C#-----------------------------------------------------------------|
G#-3~~~~~~~~~~~~~~~~~~~~~~~~~~~~~~~~~~~~~~~~~~~~~~~~~~~~~~~~~~~~~~-|
E -2~~~~~~~~~~~~~~~~~~~~~~~~~~~~~~~~~~~~~~~~~~~~~~~~~~~~~~~~~~~~~~-|
B -0~~~~~~~~~~~~~~~~~~~~~~~~~~~~~~~~~~~~~~~~~~~~~~~~~~~~~~~~~~~~~~-|
F#-0~~~~~~~~~~~~~~~~~~~~~~~~~~~~~~~~~~~~~~~~~~~~~~~~~~~~~~~~~~~~~~-|
B -0~~~~~~~~~~~~~~~~~~~~~~~~~~~~~~~~~~~~~~~~~~~~~~~~~~~~~~~~~~~~~~-|

Guitar 2
C#-----------------------------------------------------------------|
G#-----------------------------------------------------------------|
E -----------------------------------------------------------------|
B -7-7-0-0-7-7-8-8-7-7-0-0-7-7-8-8-5-5-0-0-5-5-7-7-8-8-8-8-8-8-8-8-|
F#-----------------------------------------------------------------|
B -----------------------------------------------------------------|
Pm . . . . . . . . . . . . . . . . . . . . . . . . . . . . . . . .

===================================================================

Guitar 1
C#-----------------------------------------------------------------|
G#-----------------------------------------------------------------|
E -----------------------------------------------------------------|
B ---------------------------------------------------------ps\~~~~-|
F#---------------------------------------------------------ps\~~~~-|
B ---------------------------------------------------------ps\~~~~-|

Guitar 2
C#-----------------------------------------------------------------|
G#-----------------------------------------------------------------|
E -----------------------------------------------------------------|
B -7-7-0-0-7-7-8-8-7-7-0-0-7-7-8-8-5-5-0-0-5-5-7-7-8-8-8-8-8-8-8-8-|
F#-----------------------------------------------------------------|
B -----------------------------------------------------------------|
Pm . . . . . . . . . . . . . . . . . . . . . . . . . . . . . . . .

===================================================================
===================================================================


Intro 2

(x4)

Guitar 1
C#-----------------------------------------------------------------|
G#-----------------------------------------------------------------|
E -----------------------------------------------------------------|
B -0-0---0---0---0-0---0---0---0---0-0---0---0---0-0---0---0---0---|
F#-0-0---0---0---0-0---0---0---0---0-0---0---0---0-0---0---0---0---|
B -0-0---0---0---0-0---0---0---0---0-0---0---0---0-0---0---0---0---|
Pm . .   .   .   . .   .   .   .   . .   .   .   . .   .   .   .

Guitar 2
C#-----------------------------------------------------------------|
G#-----------------------------------------------------------------|
E -----------------------------------------------------------------|
B -7-7-0-0-7-7-8-8-7-7-0-0-7-7-8-8-5-5-0-0-5-5-7-7-8-8-8-8-8-8-8-8-|
F#-----------------------------------------------------------------|
B -----------------------------------------------------------------|

===================================================================
===================================================================


Verse 1

(x2)

Guitar 1
C#-----------------------------------------------------------------|
G#-----------------------------------------------------------------|
E -----------------------------------------------------------------|
B -0~~~~~~~~~~~~~~~~~~~~~~~~~~~~~~-5~~~~~~~~~~~~~~-3~~~~~~~~~~~~~~-|
F#-0~~~~~~~~~~~~~~~~~~~~~~~~~~~~~~-5~~~~~~~~~~~~~~-3~~~~~~~~~~~~~~-|
B -0~~~~~~~~~~~~~~~~~~~~~~~~~~~~~~-5~~~~~~~~~~~~~~-3~~~~~~~~~~~~~~-|

Guitar 2
C#-----------------------------------------------------------------|
G#-----------------------------------------------------------------|
E -----------------------------------------------------------------|
B -7-7-0-0-7-7-8-8-7-7-0-0-7-7-8-8-5-5-0-0-5-5-7-7-8-8-8-8-8-8-8-8-|
F#-----------------------------------------------------------------|
B -----------------------------------------------------------------|

===================================================================

Guitar 1
C#-----------------------------------------------------------------|
G#-----------------------------------------------------------------|
E -----------------------------------------------------------------|
B -8~~~~~~~~~~~~~~~~~~~~~~~~~~~~~~-3~~~~~~~~~~~~~~-5~~~~~~~~~~~~~~-|
F#-8~~~~~~~~~~~~~~~~~~~~~~~~~~~~~~-3~~~~~~~~~~~~~~-5~~~~~~~~~~~~~~-|
B -8~~~~~~~~~~~~~~~~~~~~~~~~~~~~~~-3~~~~~~~~~~~~~~-5~~~~~~~~~~~~~~-|

Guitar 2
C#-----------------------------------------------------------------|
G#-----------------------------------------------------------------|
E -----------------------------------------------------------------|
B -7-7-0-0-7-7-8-8-7-7-0-0-7-7-8-8-5-5-0-0-5-5-7-7-8-8-8-8-8-8-8-8-|
F#-----------------------------------------------------------------|
B -----------------------------------------------------------------|

===================================================================
===================================================================


Pre Chorus 1

Guitar 1
C#-----------------------------------------------------------------|
G#-----------------------------------------------------------------|
E -----------------------------------------------------------------|
B -0---0-------0-------0-------0---0-------0-------0-------0-------|
F#-0---0-------0-------0-------0---0-------0-------0-------0-------|
B -0---0-------0-------0-------0---0-------0-------0-------0-------|
Pm .   .       .       .       .   .       .       .       .

Guitar 2
C#-----------------------------------------------------------------|
G#-----------------------------------------------------------------|
E -7---7---7---7---7---7---7---7---7---7---7---7---7---7---7---7---|
B -x---x---x---x---x---x---x---x---x---x---x---x---x---x---x---x---|
F#-5---5---5---5---5---5---5---5---5---5---5---5---5---5---5---5---|
B -----------------------------------------------------------------|

===================================================================

Guitar 1
C#-----------------------------------------------------------------|
G#-----------------------------------------------------------------|
E -----------------------------------------------------------------|
B -0---0-------0-------0-------0---0-------0-------0-------0-------|
F#-0---0-------0-------0-------0---0-------0-------0-------0-------|
B -0---0-------0-------0-------0---0-------0-------0-------0-------|
Pm .   .       .       .       .   .       .       .       .

Guitar 2
C#-----------------------------------------------------------------|
G#-----------------------------------------------------------------|
E -10--10--10--10--10--10--10--10--10--10--10--10--10--10--10--10--|
B -x---x---x---x---x---x---x---x---x---x---x---x---x---x---x---x---|
F#-8---8---8---8---8---8---8---8---8---8---8---8---8---8---8---8---|
B -----------------------------------------------------------------|

===================================================================

Guitar 1
C#-----------------------------------------------------------------|
G#-----------------------------------------------------------------|
E -----------------------------------------------------------------|
B -0---0-------0-------0-------0---0-------0-------0-------0-------|
F#-0---0-------0-------0-------0---0-------0-------0-------0-------|
B -0---0-------0-------0-------0---0-------0-------0-------0-------|
Pm .   .       .       .       .   .       .       .       .

Guitar 2
C#-----------------------------------------------------------------|
G#-8---8---8---8---8---8---8---8---8---8---8---8---8---8---8---8---|
E -x---x---x---x---x---x---x---x---x---x---x---x---x---x---x---x---|
B -5---5---5---5---5---5---5---5---5---5---5---5---5---5---5---5---|
F#-----------------------------------------------------------------|
B -----------------------------------------------------------------|

===================================================================

Guitar 1
C#-----------------------------------------------------------------|
G#-----------------------------------------------------------------|
E -----------------------------------------------------------------|
B -0---0-------0-------0-------0---0-------0-------0-------0-------|
F#-0---0-------0-------0-------0---0-------0-------0-------0-------|
B -0---0-------0-------0-------0---0-------0-------0-------0-------|
Pm .   .       .       .       .   .       .       .       .

Guitar 2
C#-----------------------------------------------------------------|
G#-11--11--11--11--11--11--11--11--11--11--11--11--11--11--11--11--|
E -x---x---x---x---x---x---x---x---x---x---x---x---x---x---x---x---|
B -8---8---8---8---8---8---8---8---8---8---8---8---8---8---8---8---|
F#-----------------------------------------------------------------|
B -----------------------------------------------------------------|

===================================================================
===================================================================


Chorus 1

Guitar 1
C#-----------------------------------------------------------------|
G#-----------------------------------------------------------------|
E -----------------------------------------------------------------|
B -----------------------------------------------------------------|
F#-----------------------------------------------------------------|
B -3---3---3---3---3---3---3---3---3---3---3---3---3---3---3---3---|

Guitar 2
C#-----------------------------------------------------------------|
G#-10--10--10--10--10--10--10--10--10--10--10--10--10--10--10--10--|
E -x---x---x---x---x---x---x---x---x---x---x---x---x---x---x---x---|
B -7---7---7---7---7---7---7---7---7---7---7---7---7---7---7---7---|
F#-----------------------------------------------------------------|
B -----------------------------------------------------------------|

===================================================================

Guitar 1
C#-----------------------------------------------------------------|
G#-----------------------------------------------------------------|
E -----------------------------------------------------------------|
B -----------------------------------------------------------------|
F#-----------------------------------------------------------------|
B -3---3---3---3---3---3---3---3---3---3---3---3---3---3---3---3---|

Guitar 2
C#-----------------------------------------------------------------|
G#-10--10--10--10--10--10--10--10----------------------------------|
E -x---x---x---x---x---x---x---x---7---7---7---7---7---7---7---7---|
B -7---7---7---7---7---7---7---7---x---x---x---x---x---x---x---x---|
F#---------------------------------5---5---5---5---5---5---5---5---|
B -----------------------------------------------------------------|

===================================================================

Guitar 1
C#-----------------------------------------------------------------|
G#-----------------------------------------------------------------|
E -----------------------------------------------------------------|
B -----------------------------------------------------------------|
F#-----------------------------------------------------------------|
B -5---5---5---5---5---5---5---5---5---5---5---5---5---5---5---5---|

Guitar 2
C#-----------------------------------------------------------------|
G#-11--11--11--11--11--11--11--11--11--11--11--11--11--11--11--11--|
E -x---x---x---x---x---x---x---x---x---x---x---x---x---x---x---x---|
B -8---8---8---8---8---8---8---8---8---8---8---8---8---8---8---8---|
F#-----------------------------------------------------------------|
B -----------------------------------------------------------------|

===================================================================

Guitar 1
C#-----------------------------------------------------------------|
G#-----------------------------------------------------------------|
E -----------------------------------------------------------------|
B -----------------------------------------------------------------|
F#-----------------------------------------------------------------|
B -5---5---5---5---5---5---5---5---5---5---5---5---5---5---5---5---|

Guitar 2
C#-----------------------------------------------------------------|
G#-11--11--11--11--11--11--11--11--11--11--11--11--11--11--11--11--|
E -x---x---x---x---x---x---x---x---x---x---x---x---x---x---x---x---|
B -8---8---8---8---8---8---8---8---8---8---8---8---8---8---8---8---|
F#-----------------------------------------------------------------|
B -----------------------------------------------------------------|

===================================================================

Guitar 1
C#-----------------------------------------------------------------|
G#-----------------------------------------------------------------|
E -----------------------------------------------------------------|
B -----------------------------------------------------------------|
F#-----------------------------------------------------------------|
B -0---0---0---0---0---0---0---0---0---0---0---0---0---0---0---0---|

Guitar 2
C#-----------------------------------------------------------------|
G#-10--10--10--10--10--10--10--10--10--10--10--10--10--10--10--10--|
E -x---x---x---x---x---x---x---x---x---x---x---x---x---x---x---x---|
B -7---7---7---7---7---7---7---7---7---7---7---7---7---7---7---7---|
F#-----------------------------------------------------------------|
B -----------------------------------------------------------------|

===================================================================

Guitar 1
C#-----------------------------------------------------------------|
G#-----------------------------------------------------------------|
E -----------------------------------------------------------------|
B -----------------------------------------------------------------|
F#-----------------------------------------------------------------|
B -0---0---0---0---0---0---0---0---0---0---0---0---0---0---0---0---|

Guitar 2
C#-----------------------------------------------------------------|
G#-10--10--10--10--10--10--10--10----------------------------------|
E -x---x---x---x---x---x---x---x---7---7---7---7---7---7---7---7---|
B -7---7---7---7---7---7---7---7---x---x---x---x---x---x---x---x---|
F#---------------------------------5---5---5---5---5---5---5---5---|
B -----------------------------------------------------------------|

===================================================================

Guitar 1
C#-----------------------------------------------------------------|
G#-----------------------------------------------------------------|
E -----------------------------------------------------------------|
B -----------------------------------------------------------------|
F#-----------------------------------------------------------------|
B -1---1---1---1---1---1---1---1---1---1---1---1---1---1---1---1---|

Guitar 2
C#-----------------------------------------------------------------|
G#-11--11--11--11--11--11--11--11--11--11--11--11--11--11--11--11--|
E -x---x---x---x---x---x---x---x---x---x---x---x---x---x---x---x---|
B -8---8---8---8---8---8---8---8---8---8---8---8---8---8---8---8---|
F#-----------------------------------------------------------------|
B -----------------------------------------------------------------|

===================================================================

Guitar 1
C#-----------------------------------------------------------------|
G#-----------------------------------------------------------------|
E -----------------------------------------------------------------|
B -----------------------------------------------------------------|
F#-----------------------------------------------------------------|
B -1---1---1---1---1---1---1---1---1---1---1---1---1---1---1---1---|

Guitar 2
C#-----------------------------------------------------------------|
G#-11--11--11--11--11--11--11--11--11--11--11--11--11--11--11--11--|
E -x---x---x---x---x---x---x---x---x---x---x---x---x---x---x---x---|
B -8---8---8---8---8---8---8---8---8---8---8---8---8---8---8---8---|
F#-----------------------------------------------------------------|
B -----------------------------------------------------------------|

===================================================================
===================================================================


Bridge 1

Guitar 1 & 2
C#-----------------------------------------------------------------|
G#-----------------------------------------------------------------|
E -----------------------------------------------------------------|
B -0-----0-----0-----0-----0---------------------------------------|
F#-0-----0-----0-----0-----0---------------------------------------|
B -0-----0-----0-----0-----0---------------------------------------|

===================================================================
===================================================================


Verse 2

Guitar 1 & 2
C#-----------------------------------------------------------------|
G#-----------------------------------------------------------------|
E -----------------------------------------------------------------|
B -0~~~~~~~~~~~~~~~~~~~~~~~~~~~~~~-5~~~~~~~~~~~~~~-3~~~~~~~~~~~~~~-|
F#-0~~~~~~~~~~~~~~~~~~~~~~~~~~~~~~-5~~~~~~~~~~~~~~-3~~~~~~~~~~~~~~-|
B -0~~~~~~~~~~~~~~~~~~~~~~~~~~~~~~-5~~~~~~~~~~~~~~-3~~~~~~~~~~~~~~-|

===================================================================

Guitar 1 & 2
C#-----------------------------------------------------------------|
G#-----------------------------------------------------------------|
E -----------------------------------------------------------------|
B -8~~~~~~~~~~~~~~~~~~~~~~~~~~~~~~-3~~~~~~~~~~~~~~-5~~~~~~~~~~~~~~-|
F#-8~~~~~~~~~~~~~~~~~~~~~~~~~~~~~~-3~~~~~~~~~~~~~~-5~~~~~~~~~~~~~~-|
B -8~~~~~~~~~~~~~~~~~~~~~~~~~~~~~~-3~~~~~~~~~~~~~~-5~~~~~~~~~~~~~~-|

===================================================================

Guitar 1
C#-----------------------------------------------------------------|
G#-----------------------------------------------------------------|
E -----------------------------------------------------------------|
B -0~~~~~~~~~~~~~~~~~~~~~~~~~~~~~~-5~~~~~~~~~~~~~~-3~~~~~~~~~~~~~~-|
F#-0~~~~~~~~~~~~~~~~~~~~~~~~~~~~~~-5~~~~~~~~~~~~~~-3~~~~~~~~~~~~~~-|
B -0~~~~~~~~~~~~~~~~~~~~~~~~~~~~~~-5~~~~~~~~~~~~~~-3~~~~~~~~~~~~~~-|

Guitar 2
C#-----------------------------------------------------------------|
G#-----------------------------------------------------------------|
E -----------------------------------------------------------------|
B -7-7-0-0-7-7-8-8-7-7-0-0-7-7-8-8-5-5-0-0-5-5-7-7-8-8-8-8-8-8-8-8-|
F#-----------------------------------------------------------------|
B -----------------------------------------------------------------|

===================================================================

Guitar 1
C#-----------------------------------------------------------------|
G#-----------------------------------------------------------------|
E -----------------------------------------------------------------|
B -8~~~~~~~~~~~~~~~~~~~~~~~~~~~~~~-3~~~~~~~~~~~~~~-5~~~~~~~~~~~~~~-|
F#-8~~~~~~~~~~~~~~~~~~~~~~~~~~~~~~-3~~~~~~~~~~~~~~-5~~~~~~~~~~~~~~-|
B -8~~~~~~~~~~~~~~~~~~~~~~~~~~~~~~-3~~~~~~~~~~~~~~-5~~~~~~~~~~~~~~-|

Guitar 2
C#-----------------------------------------------------------------|
G#-----------------------------------------------------------------|
E -----------------------------------------------------------------|
B -7-7-0-0-7-7-8-8-7-7-0-0-7-7-8-8-5-5-0-0-5-5-7-7-8-8-8-8-8-8-8-8-|
F#-----------------------------------------------------------------|
B -----------------------------------------------------------------|

===================================================================
===================================================================


Pre Chorus 1

Guitar 1
C#-----------------------------------------------------------------|
G#-----------------------------------------------------------------|
E -----------------------------------------------------------------|
B -0---0-------0-------0-------0---0-------0-------0-------0-------|
F#-0---0-------0-------0-------0---0-------0-------0-------0-------|
B -0---0-------0-------0-------0---0-------0-------0-------0-------|
Pm .   .       .       .       .   .       .       .       .

Guitar 2
C#-----------------------------------------------------------------|
G#-----------------------------------------------------------------|
E -7---7---7---7---7---7---7---7---7---7---7---7---7---7---7---7---|
B -x---x---x---x---x---x---x---x---x---x---x---x---x---x---x---x---|
F#-5---5---5---5---5---5---5---5---5---5---5---5---5---5---5---5---|
B -----------------------------------------------------------------|

===================================================================

Guitar 1
C#-----------------------------------------------------------------|
G#-----------------------------------------------------------------|
E -----------------------------------------------------------------|
B -0---0-------0-------0-------0---0-------0-------0-------0-------|
F#-0---0-------0-------0-------0---0-------0-------0-------0-------|
B -0---0-------0-------0-------0---0-------0-------0-------0-------|
Pm .   .       .       .       .   .       .       .       .

Guitar 2
C#-----------------------------------------------------------------|
G#-----------------------------------------------------------------|
E -10--10--10--10--10--10--10--10--10--10--10--10--10--10--10--10--|
B -x---x---x---x---x---x---x---x---x---x---x---x---x---x---x---x---|
F#-8---8---8---8---8---8---8---8---8---8---8---8---8---8---8---8---|
B -----------------------------------------------------------------|

===================================================================

Guitar 1
C#-----------------------------------------------------------------|
G#-----------------------------------------------------------------|
E -----------------------------------------------------------------|
B -0---0-------0-------0-------0---0-------0-------0-------0-------|
F#-0---0-------0-------0-------0---0-------0-------0-------0-------|
B -0---0-------0-------0-------0---0-------0-------0-------0-------|
Pm .   .       .       .       .   .       .       .       .

Guitar 2
C#-----------------------------------------------------------------|
G#-8---8---8---8---8---8---8---8---8---8---8---8---8---8---8---8---|
E -x---x---x---x---x---x---x---x---x---x---x---x---x---x---x---x---|
B -5---5---5---5---5---5---5---5---5---5---5---5---5---5---5---5---|
F#-----------------------------------------------------------------|
B -----------------------------------------------------------------|

===================================================================

Guitar 1
C#-----------------------------------------------------------------|
G#-----------------------------------------------------------------|
E -----------------------------------------------------------------|
B -0---0-------0-------0-------0---0-------0-------0-------0-------|
F#-0---0-------0-------0-------0---0-------0-------0-------0-------|
B -0---0-------0-------0-------0---0-------0-------0-------0-------|
Pm .   .       .       .       .   .       .       .       .

Guitar 2
C#-----------------------------------------------------------------|
G#-11--11--11--11--11--11--11--11--11--11--11--11--11--11--11--11--|
E -x---x---x---x---x---x---x---x---x---x---x---x---x---x---x---x---|
B -8---8---8---8---8---8---8---8---8---8---8---8---8---8---8---8---|
F#-----------------------------------------------------------------|
B -----------------------------------------------------------------|

===================================================================
===================================================================


Chorus 2

(x2)

Guitar 1
C#-----------------------------------------------------------------|
G#-----------------------------------------------------------------|
E -----------------------------------------------------------------|
B -----------------------------------------------------------------|
F#-----------------------------------------------------------------|
B -3---3---3---3---3---3---3---3---3---3---3---3---3---3---3---3---|

Guitar 2
C#-----------------------------------------------------------------|
G#-10--10--10--10--10--10--10--10--10--10--10--10--10--10--10--10--|
E -x---x---x---x---x---x---x---x---x---x---x---x---x---x---x---x---|
B -7---7---7---7---7---7---7---7---7---7---7---7---7---7---7---7---|
F#-----------------------------------------------------------------|
B -----------------------------------------------------------------|

===================================================================

Guitar 1
C#-----------------------------------------------------------------|
G#-----------------------------------------------------------------|
E -----------------------------------------------------------------|
B -----------------------------------------------------------------|
F#-----------------------------------------------------------------|
B -3---3---3---3---3---3---3---3---3---3---3---3---3---3---3---3---|

Guitar 2
C#-----------------------------------------------------------------|
G#-10--10--10--10--10--10--10--10----------------------------------|
E -x---x---x---x---x---x---x---x---7---7---7---7---7---7---7---7---|
B -7---7---7---7---7---7---7---7---x---x---x---x---x---x---x---x---|
F#---------------------------------5---5---5---5---5---5---5---5---|
B -----------------------------------------------------------------|

===================================================================

Guitar 1
C#-----------------------------------------------------------------|
G#-----------------------------------------------------------------|
E -----------------------------------------------------------------|
B -----------------------------------------------------------------|
F#-----------------------------------------------------------------|
B -5---5---5---5---5---5---5---5---5---5---5---5---5---5---5---5---|

Guitar 2
C#-----------------------------------------------------------------|
G#-11--11--11--11--11--11--11--11--11--11--11--11--11--11--11--11--|
E -x---x---x---x---x---x---x---x---x---x---x---x---x---x---x---x---|
B -8---8---8---8---8---8---8---8---8---8---8---8---8---8---8---8---|
F#-----------------------------------------------------------------|
B -----------------------------------------------------------------|

===================================================================

Guitar 1
C#-----------------------------------------------------------------|
G#-----------------------------------------------------------------|
E -----------------------------------------------------------------|
B -----------------------------------------------------------------|
F#-----------------------------------------------------------------|
B -5---5---5---5---5---5---5---5---5---5---5---5---5---5---5---5---|

Guitar 2
C#-----------------------------------------------------------------|
G#-11--11--11--11--11--11--11--11--11--11--11--11--11--11--11--11--|
E -x---x---x---x---x---x---x---x---x---x---x---x---x---x---x---x---|
B -8---8---8---8---8---8---8---8---8---8---8---8---8---8---8---8---|
F#-----------------------------------------------------------------|
B -----------------------------------------------------------------|

===================================================================

Guitar 1
C#-----------------------------------------------------------------|
G#-----------------------------------------------------------------|
E -----------------------------------------------------------------|
B -----------------------------------------------------------------|
F#-----------------------------------------------------------------|
B -0---0---0---0---0---0---0---0---0---0---0---0---0---0---0---0---|

Guitar 2
C#-----------------------------------------------------------------|
G#-10--10--10--10--10--10--10--10--10--10--10--10--10--10--10--10--|
E -x---x---x---x---x---x---x---x---x---x---x---x---x---x---x---x---|
B -7---7---7---7---7---7---7---7---7---7---7---7---7---7---7---7---|
F#-----------------------------------------------------------------|
B -----------------------------------------------------------------|

===================================================================

Guitar 1
C#-----------------------------------------------------------------|
G#-----------------------------------------------------------------|
E -----------------------------------------------------------------|
B -----------------------------------------------------------------|
F#-----------------------------------------------------------------|
B -0---0---0---0---0---0---0---0---0---0---0---0---0---0---0---0---|

Guitar 2
C#-----------------------------------------------------------------|
G#-10--10--10--10--10--10--10--10----------------------------------|
E -x---x---x---x---x---x---x---x---7---7---7---7---7---7---7---7---|
B -7---7---7---7---7---7---7---7---x---x---x---x---x---x---x---x---|
F#---------------------------------5---5---5---5---5---5---5---5---|
B -----------------------------------------------------------------|

===================================================================

Guitar 1
C#-----------------------------------------------------------------|
G#-----------------------------------------------------------------|
E -----------------------------------------------------------------|
B -----------------------------------------------------------------|
F#-----------------------------------------------------------------|
B -1---1---1---1---1---1---1---1---1---1---1---1---1---1---1---1---|

Guitar 2
C#-----------------------------------------------------------------|
G#-11--11--11--11--11--11--11--11--11--11--11--11--11--11--11--11--|
E -x---x---x---x---x---x---x---x---x---x---x---x---x---x---x---x---|
B -8---8---8---8---8---8---8---8---8---8---8---8---8---8---8---8---|
F#-----------------------------------------------------------------|
B -----------------------------------------------------------------|

===================================================================

Guitar 1
C#-----------------------------------------------------------------|
G#-----------------------------------------------------------------|
E -----------------------------------------------------------------|
B -----------------------------------------------------------------|
F#-----------------------------------------------------------------|
B -1---1---1---1---1---1---1---1---1---1---1---1---1---1---1---1---|

Guitar 2
C#-----------------------------------------------------------------|
G#-11--11--11--11--11--11--11--11--11--11--11--11--11--11--11--11--|
E -x---x---x---x---x---x---x---x---x---x---x---x---x---x---x---x---|
B -8---8---8---8---8---8---8---8---8---8---8---8---8---8---8---8---|
F#-----------------------------------------------------------------|
B -----------------------------------------------------------------|

===================================================================
===================================================================


Bridge 1

Guitar 1 & 2
C#-----------------------------------------------------------------|
G#-----------------------------------------------------------------|
E -----------------------------------------------------------------|
B -0-----0-----0-----0-----0---------------------------------------|
F#-0-----0-----0-----0-----0---------------------------------------|
B -0-----0-----0-----0-----0---------------------------------------|

===================================================================
===================================================================


Interlude

Guitar 1
C#-----------------------------------------------------------------|
G#-----------------------------------------------------------------|
E -----------------------------------------------------------------|
B -0~~~~~~~~~~~~~~~~~~~~~~~~~~~~~~-5~~~~~~~~~~~~~~-3~~~~~~~~~~~~~~-|
F#-0~~~~~~~~~~~~~~~~~~~~~~~~~~~~~~-5~~~~~~~~~~~~~~-3~~~~~~~~~~~~~~-|
B -0~~~~~~~~~~~~~~~~~~~~~~~~~~~~~~-5~~~~~~~~~~~~~~-3~~~~~~~~~~~~~~-|

Guitar 2
C#-----------------------------------------------------------------|
G#-----------------------------------------------------------------|
E -----------------------------------------------------------------|
B -7-7-0-0-7-7-8-8-7-7-0-0-7-7-8-8-5-5-0-0-5-5-7-7-8-8-8-8-8-8-8-8-|
F#-----------------------------------------------------------------|
B -----------------------------------------------------------------|

===================================================================

Guitar 1
C#-----------------------------------------------------------------|
G#-----------------------------------------------------------------|
E -----------------------------------------------------------------|
B -1~~~~~~~~~~~~~~~~~~~~~~~~~~~~~~~~~~~~~~~~~~~~~~~~~~~~~~~~~~~~~~-
F#-1~~~~~~~~~~~~~~~~~~~~~~~~~~~~~~~~~~~~~~~~~~~~~~~~~~~~~~~~~~~~~~-
B -1~~~~~~~~~~~~~~~~~~~~~~~~~~~~~~~~~~~~~~~~~~~~~~~~~~~~~~~~~~~~~~-

Guitar 2
C#-----------------------------------------------------------------|
G#-----------------------------------------------------------------|
E -----------------------------------------------------------------|
B -7-7-0-0-7-7-8-8-7-7-0-0-7-7-8-8-5-5-0-0-5-5-7-7-8-8-8-8-8-8-8-8-|
F#-----------------------------------------------------------------|
B -----------------------------------------------------------------|

===================================================================

Guitar 1
C#-----------------------------------------------------------------|
G#-----------------------------------------------------------------|
E -----------------------------------------------------------------|
B -0~~~------------------------------------------------------------|
F#-0~~~------------------------------------------------------------|
B -0~~~------------------------------------------------------------|

Guitar 2
C#-----------------------------------------------------------------|
G#-----------------------------------------------------------------|
E -----------------------------------------------------------------|
B -7-7-0-0-7-7-8-8-7-7-0-0-7-7-8-8-5-5-0-0-5-5-7-7-8-8-8-8-8-8-8-8-|
F#-----------------------------------------------------------------|
B -----------------------------------------------------------------|

===================================================================

Guitar 1                           |           Fade In            |
C#-----------------------------------------------------------------|
G#-----------------------------------------------------------------|
E -----------------------------------------------------------------|
B -0---0---------------------------0~~~~~~~~~~~~~~~~~~~~~~~~~~~~~~-|
F#-0---0---------------------------0~~~~~~~~~~~~~~~~~~~~~~~~~~~~~~-|
B -0---0---------------------------0~~~~~~~~~~~~~~~~~~~~~~~~~~~~~~-|
Pm .   .

Guitar 2
C#-----------------------------------------------------------------|
G#-----------------------------------------------------------------|
E -----------------------------------------------------------------|
B -7-7-0-0-7-7-8-8-7-7-0-0-7-7-8-8-5-5-0-0-5-5-7-7-8-8-8-8-8-8-8-8-|
F#-----------------------------------------------------------------|
B -----------------------------------------------------------------|

===================================================================

Guitar 1
C#-----------------------------------------------------------------|
G#-----------------------------------------------------------------|
E -----------------------------------------------------------------|
B -0~~~~~~~~~~~~~~~~~~~~~~~~~~~~~~-3~~~~~~~~~~~~~~-1~~~~~~~~~~~~~~-|
F#-0~~~~~~~~~~~~~~~~~~~~~~~~~~~~~~-3~~~~~~~~~~~~~~-1~~~~~~~~~~~~~~-|
B -0~~~~~~~~~~~~~~~~~~~~~~~~~~~~~~-3~~~~~~~~~~~~~~-1~~~~~~~~~~~~~~-|

Guitar 2
C#-----------------------------------------------------------------|
G#-----------------------------------------------------------------|
E -----------------------------------------------------------------|
B -7-7-0-0-7-7-8-8-7-7-0-0-7-7-8-8-5-5-0-0-5-5-7-7-8-8-8-8-8-8-8-8-|
F#-----------------------------------------------------------------|
B -----------------------------------------------------------------|

===================================================================

Guitar 1
C#-----------------------------------------------------------------|
G#-----------------------------------------------------------------|
E -----------------------------------------------------------------|
B -0~~~~~~~~~~~~~~~~~~~~~~~~~~~~~~~~~~~~~~~~~~~~~~-ps\~~~~~~~~~~~~-
F#-0~~~~~~~~~~~~~~~~~~~~~~~~~~~~~~~~~~~~~~~~~~~~~~-ps\~~~~~~~~~~~~-
B -0~~~~~~~~~~~~~~~~~~~~~~~~~~~~~~~~~~~~~~~~~~~~~~-ps\~~~~~~~~~~~~-

Guitar 2
C#-----------------------------------------------------------------|
G#-----------------------------------------------------------------|
E -----------------------------------------------------------------|
B -7-7-0-0-7-7-8-8-7-7-0-0-7-7-8-8-5-5-0-0-5-5-7-7-8-8-8-8-/10~~~~-|
F#-----------------------------------------------------------------|
B -----------------------------------------------------------------|

===================================================================
===================================================================


Guitar Solo

Guitar 1
C#-----------------------------------------------------------------|
G#-----------------------------------------------------------------|
E -----------------------------------------------------------------|
B -----------------------------------------------------------------|
F#-----------------------------------------------------------------|
B -0-0-0-0-0-0-0-0-0-0-0-0-0-0-0-0-5-5-5-5-5-5-5-5-3-3-3-3-3-3-3-3-|

Guitar 2 (Wah Effect)
C#-------------------------------------------------------------------|
G#-------------------------------------------------------------------|
E -----------------------------12~~~~~~~~~---------------------------|
B /12~~~~~~~~~~~~~~~~~-12--15--------------15~~~~~~~-12-12-12-12-15--|
F#-------------------------------------------------------------------|
B -------------------------------------------------------------------|

==================================================================

Guitar 1
C#-----------------------------------------------------------------|
G#-----------------------------------------------------------------|
E -----------------------------------------------------------------|
B -----------------------------------------------------------------|
F#-----------------------------------------------------------------|
B -1-1-1-1-1-1-1-1-1-1-1-1-1-1-1-1-3-3-3-3-3-3-3-3-5-5-5-5-5-5-5-5-|

Guitar 2
C#------------------------------------------------------------------|
G#------------------------------------------------------------------|
E ------------------------------------------------------------------|
B -10~~~~~---------------------10~~~~~-----10--10~b~r~--------/12~~-|
F#---------13--10~~~~~-10--13----------13--------------13--10-------|
B ------------------------------------------------------------------|

===================================================================

Guitar 1
C#-----------------------------------------------------------------|
G#-----------------------------------------------------------------|
E -----------------------------------------------------------------|
B -----------------------------------------------------------------|
F#-----------------------------------------------------------------|
B -0-0-0-0-0-0-0-0-0-0-0-0-0-0-0-0-5-5-5-5-5-5-5-5-3-3-3-3-3-3-3-3-|

Guitar 2
C#-------------------------------------------------------------------|
G#-------------------------------------------------------------------|
E -----------------------------12~~~~~~~~~---------------------------|
B /12~~~~~~~~~~~~~~~~~-12--15--------------15~~~~~~~-12-12-12-12-15--|
F#-------------------------------------------------------------------|
B -------------------------------------------------------------------|

==================================================================

Guitar 1
C#-----------------------------------------------------------------|
G#-----------------------------------------------------------------|
E -----------------------------------------------------------------|
B -----------------------------------------------------------------|
F#-----------------------------------------------------------------|
B -1-1-1-1-1-1-1-1-1-1-1-1-1-1-1-1-3-3-3-3-3-3-3-3-5-5-5-5-5-5-5-5-|

Guitar 2
C#---------------------------------|
G#---------------------------------|
E ---------------------------------|
B -10~~~~~-------------------------|
F#---------13--10~~~~~-10--13--10--|
B ---------------------------------|

Guitar 2 continued
C#----------------------------------10-12-13-15-|
G#-------------------------10-11-13-------------|
E -----------------9-10-12----------------------|
B ---------8-10-12------------------------------|
F#-8-10-12--------------------------------------|
B ----------------------------------------------|

===================================================================

Guitar 1
C#-----------------------------------------------------------------|
G#-----------------------------------------------------------------|
E -----------------------------------------------------------------|
B -----------------------------------------------------------------|
F#-----------------------------------------------------------------|
B -0-0-0-0-0-0-0-0-0-0-0-0-0-0-0-0-5-5-5-5-5-5-5-5-3-3-3-3-3-3-3-3-|

Guitar 2
C#-----------------------------15~~~~~~~~~-------------------------------|
G#/15~~~~~~~~~~~~~~~~~-15--18--------------18~~~~~~~-14b-14b-14b-14b-18--|
E -----------------------------------------------------------------------|
B -----------------------------------------------------------------------|
F#-----------------------------------------------------------------------|
B -----------------------------------------------------------------------|

==================================================================

Guitar 1
C#-----------------------------------------------------------------|
G#-----------------------------------------------------------------|
E -----------------------------------------------------------------|
B -----------------------------------------------------------------|
F#-----------------------------------------------------------------|
B -1-1-1-1-1-1-1-1-1-1-1-1-1-1-1-1-3-3-3-3-3-3-3-3-5-5-5-5-5-5-5-5-|

Guitar 2
C#------------------------------------------------------------------|
G#-13~~~~~---------------------13~~~~~-----13--13~b~r~--------/15~~-|
E ---------15--12~~~~~-12--15----------15--------------15--12-------|
B ------------------------------------------------------------------|
F#------------------------------------------------------------------|
B ------------------------------------------------------------------|

===================================================================

Guitar 1
C#-----------------------------------------------------------------|
G#-----------------------------------------------------------------|
E -----------------------------------------------------------------|
B -----------------------------------------------------------------|
F#-----------------------------------------------------------------|
B -0-0-0-0-0-0-0-0-0-0-0-0-0-0-0-0-5-5-5-5-5-5-5-5-3-3-3-3-3-3-3-3-|

Guitar 2
C#-----------------------------15~~~~~~~~~-------------------------------|
G#/15~~~~~~~~~~~~~~~~~-15--18--------------18~~~~~~~-14b-14b-14b-14b-18--|
E -----------------------------------------------------------------------|
B -----------------------------------------------------------------------|
F#-----------------------------------------------------------------------|
B -----------------------------------------------------------------------|

==================================================================

Guitar 1
C#-----------------------------------------------------------------|
G#-----------------------------------------------------------------|
E -----------------------------------------------------------------|
B -----------------------------------------------------------------|
F#-----------------------------------------------------------------|
B -1-1-1-1-1-1-1-1-1-1-1-1-1-1-1-1-3-3-3-3-3-3-3-3-5-5-5-5-5-5-5-5-|

Guitar 2
C#---------------------------------|
G#-13~~~~~-------------------------|
E ---------15--12~~~~~-12--15--12--|
B ---------------------------------|
F#---------------------------------|
B ---------------------------------|

Guitar 2 continued
C#-18-15----15-------------------------------------|
G#-------18----18-15-18-15-14-15-14----14----------|
E ----------------------------------15----15-12-15-|
B -------------------------------------------------|
F#-------------------------------------------------|
B -------------------------------------------------|

===================================================================
===================================================================


Pre Chorus 2

Guitar 1
C#-----------------------------------------------------------------|
G#-----------------------------------------------------------------|
E -----------------------------------------------------------------|
B -0---0-------0-------0-------0---0-------0-------0-------0-------|
F#-0---0-------0-------0-------0---0-------0-------0-------0-------|
B -0---0-------0-------0-------0---0-------0-------0-------0-------|
Pm .   .       .       .       .   .       .       .       .

Guitar 2
C#-----------------------------------------------------------------
G#-18~~~~b~~~~~~~~~~~~~~~~~~~~~~~~~~~~~~~~~~~~~~~~~~~~~~~~~~~~~~~~-
E -----------------------------------------------------------------|
B -----------------------------------------------------------------|
F#-----------------------------------------------------------------|
B -----------------------------------------------------------------|

===================================================================

Guitar 1
C#-----------------------------------------------------------------|
G#-----------------------------------------------------------------|
E -----------------------------------------------------------------|
B -0---0-------0-------0-------0---0-------0-------0-------0-------|
F#-0---0-------0-------0-------0---0-------0-------0-------0-------|
B -0---0-------0-------0-------0---0-------0-------0-------0-------|
Pm .   .       .       .       .   .       .       .       .

Guitar 2
C#-----------------------------------------------------------------|
G#-----------------------------------------------------------------|
E -10--10--10--10--10--10--10--10--10--10--10--10--10--10--10--10--|
B -x---x---x---x---x---x---x---x---x---x---x---x---x---x---x---x---|
F#-8---8---8---8---8---8---8---8---8---8---8---8---8---8---8---8---|
B -----------------------------------------------------------------|

===================================================================

Guitar 1
C#-----------------------------------------------------------------|
G#-----------------------------------------------------------------|
E -----------------------------------------------------------------|
B -0---0-------0-------0-------0---0-------0-------0-------0-------|
F#-0---0-------0-------0-------0---0-------0-------0-------0-------|
B -0---0-------0-------0-------0---0-------0-------0-------0-------|
Pm .   .       .       .       .   .       .       .       .

Guitar 2
C#-----------------------------------------------------------------|
G#-8---8---8---8---8---8---8---8---8---8---8---8---8---8---8---8---|
E -x---x---x---x---x---x---x---x---x---x---x---x---x---x---x---x---|
B -5---5---5---5---5---5---5---5---5---5---5---5---5---5---5---5---|
F#-----------------------------------------------------------------|
B -----------------------------------------------------------------|

===================================================================

Guitar 2
C#-----------------------------------------------------------------|
G#-11--11--11--11--11--11--11--11--11--11--11--11--11--11--11--11--|
E -x---x---x---x---x---x---x---x---x---x---x---x---x---x---x---x---|
B -8---8---8---8---8---8---8---8---8---8---8---8---8---8---8---8---|
F#-----------------------------------------------------------------|
B -----------------------------------------------------------------|

===================================================================
===================================================================


Chorus 2

(x2)

Guitar 1
C#-----------------------------------------------------------------|
G#-----------------------------------------------------------------|
E -----------------------------------------------------------------|
B -----------------------------------------------------------------|
F#-----------------------------------------------------------------|
B -3---3---3---3---3---3---3---3---3---3---3---3---3---3---3---3---|

Guitar 2
C#-----------------------------------------------------------------|
G#-10--10--10--10--10--10--10--10--10--10--10--10--10--10--10--10--|
E -x---x---x---x---x---x---x---x---x---x---x---x---x---x---x---x---|
B -7---7---7---7---7---7---7---7---7---7---7---7---7---7---7---7---|
F#-----------------------------------------------------------------|
B -----------------------------------------------------------------|

===================================================================

Guitar 1
C#-----------------------------------------------------------------|
G#-----------------------------------------------------------------|
E -----------------------------------------------------------------|
B -----------------------------------------------------------------|
F#-----------------------------------------------------------------|
B -3---3---3---3---3---3---3---3---3---3---3---3---3---3---3---3---|

Guitar 2
C#-----------------------------------------------------------------|
G#-10--10--10--10--10--10--10--10----------------------------------|
E -x---x---x---x---x---x---x---x---7---7---7---7---7---7---7---7---|
B -7---7---7---7---7---7---7---7---x---x---x---x---x---x---x---x---|
F#---------------------------------5---5---5---5---5---5---5---5---|
B -----------------------------------------------------------------|

===================================================================

Guitar 1
C#-----------------------------------------------------------------|
G#-----------------------------------------------------------------|
E -----------------------------------------------------------------|
B -----------------------------------------------------------------|
F#-----------------------------------------------------------------|
B -5---5---5---5---5---5---5---5---5---5---5---5---5---5---5---5---|

Guitar 2
C#-----------------------------------------------------------------|
G#-11--11--11--11--11--11--11--11--11--11--11--11--11--11--11--11--|
E -x---x---x---x---x---x---x---x---x---x---x---x---x---x---x---x---|
B -8---8---8---8---8---8---8---8---8---8---8---8---8---8---8---8---|
F#-----------------------------------------------------------------|
B -----------------------------------------------------------------|

===================================================================

Guitar 1
C#-----------------------------------------------------------------|
G#-----------------------------------------------------------------|
E -----------------------------------------------------------------|
B -----------------------------------------------------------------|
F#-----------------------------------------------------------------|
B -5---5---5---5---5---5---5---5---5---5---5---5---5---5---5---5---|

Guitar 2
C#-----------------------------------------------------------------|
G#-11--11--11--11--11--11--11--11--11--11--11--11--11--11--11--11--|
E -x---x---x---x---x---x---x---x---x---x---x---x---x---x---x---x---|
B -8---8---8---8---8---8---8---8---8---8---8---8---8---8---8---8---|
F#-----------------------------------------------------------------|
B -----------------------------------------------------------------|

===================================================================

Guitar 1
C#-----------------------------------------------------------------|
G#-----------------------------------------------------------------|
E -----------------------------------------------------------------|
B -----------------------------------------------------------------|
F#-----------------------------------------------------------------|
B -0---0---0---0---0---0---0---0---0---0---0---0---0---0---0---0---|

Guitar 2
C#-----------------------------------------------------------------|
G#-10--10--10--10--10--10--10--10--10--10--10--10--10--10--10--10--|
E -x---x---x---x---x---x---x---x---x---x---x---x---x---x---x---x---|
B -7---7---7---7---7---7---7---7---7---7---7---7---7---7---7---7---|
F#-----------------------------------------------------------------|
B -----------------------------------------------------------------|

===================================================================

Guitar 1
C#-----------------------------------------------------------------|
G#-----------------------------------------------------------------|
E -----------------------------------------------------------------|
B -----------------------------------------------------------------|
F#-----------------------------------------------------------------|
B -0---0---0---0---0---0---0---0---0---0---0---0---0---0---0---0---|

Guitar 2
C#-----------------------------------------------------------------|
G#-10--10--10--10--10--10--10--10----------------------------------|
E -x---x---x---x---x---x---x---x---7---7---7---7---7---7---7---7---|
B -7---7---7---7---7---7---7---7---x---x---x---x---x---x---x---x---|
F#---------------------------------5---5---5---5---5---5---5---5---|
B -----------------------------------------------------------------|

===================================================================

Guitar 1
C#-----------------------------------------------------------------|
G#-----------------------------------------------------------------|
E -----------------------------------------------------------------|
B -----------------------------------------------------------------|
F#-----------------------------------------------------------------|
B -1---1---1---1---1---1---1---1---1---1---1---1---1---1---1---1---|

Guitar 2
C#-----------------------------------------------------------------|
G#-11--11--11--11--11--11--11--11--11--11--11--11--11--11--11--11--|
E -x---x---x---x---x---x---x---x---x---x---x---x---x---x---x---x---|
B -8---8---8---8---8---8---8---8---8---8---8---8---8---8---8---8---|
F#-----------------------------------------------------------------|
B -----------------------------------------------------------------|

===================================================================

Guitar 1
C#-----------------------------------------------------------------|
G#-----------------------------------------------------------------|
E -----------------------------------------------------------------|
B -----------------------------------------------------------------|
F#-----------------------------------------------------------------|
B -1---1---1---1---1---1---1---1---1---1---1---1---1---1---1---1---|

Guitar 2
C#-----------------------------------------------------------------|
G#-11--11--11--11--11--11--11--11--11--11--11--11--11--11--11--11--|
E -x---x---x---x---x---x---x---x---x---x---x---x---x---x---x---x---|
B -8---8---8---8---8---8---8---8---8---8---8---8---8---8---8---8---|
F#-----------------------------------------------------------------|
B -----------------------------------------------------------------|

===================================================================
===================================================================


Outro

Guitar 1
C#-----------------------------------------------------------------|
G#-----------------------------------------------------------------|
E -----------------------------------------------------------------|
B -0-0---0---0---0-0---0---0---0---0-0---0---0---0-0---0---0---0---|
F#-0-0---0---0---0-0---0---0---0---0-0---0---0---0-0---0---0---0---|
B -0-0---0---0---0-0---0---0---0---0-0---0---0---0-0---0---0---0---|
Pm . .   .   .   . .   .   .   .   . .   .   .   . .   .   .   .

Guitar 2
C#-----------------------------------------------------------------|
G#-----------------------------------------------------------------|
E -----------------------------------------------------------------|
B -7-7-0-0-7-7-8-8-7-7-0-0-7-7-8-8-5-5-0-0-5-5-7-7-8-8-8-8-8-8-8-8-|
F#-----------------------------------------------------------------|
B -----------------------------------------------------------------|

===================================================================

Guitar 1
C#-----------------------------------------------------------------|
G#-----------------------------------------------------------------|
E -----------------------------------------------------------------|
B -0-0---0---0---0-0---0---0---0---0-0---0---0---0-0---0---0---0---|
F#-0-0---0---0---0-0---0---0---0---0-0---0---0---0-0---0---0---0---|
B -0-0---0---0---0-0---0---0---0---0-0---0---0---0-0---0---0---0---|
Pm . .   .   .   . .   .   .   .   . .   .   .   . .   .   .   .

Guitar 2
C#-----------------------------------------------------------------|
G#-----------------------------------------------------------------|
E -----------------------------------------------------------------|
B -7-7-0-0-7-7-8-8-7-7-0-0-7-7-8-8-5-5-0-0-5-5-7-7-8-8-8-8-8-8-8-8-|
F#-----------------------------------------------------------------|
B -----------------------------------------------------------------|

===================================================================

Guitar 1
C#-----------------------------------------------------------------|
G#-----------------------------------------------------------------|
E -----------------------------------------------------------------|
B -0-0---0---0---0-0---0---0---0---0-0---0---0---0-0---0---0---0---|
F#-0-0---0---0---0-0---0---0---0---0-0---0---0---0-0---0---0---0---|
B -0-0---0---0---0-0---0---0---0---0-0---0---0---0-0---0---0---0---|
Pm . .   .   .   . .   .   .   .   . .   .   .   . .   .   .   .

Guitar 2
C#-----------------------------------------------------------------|
G#-----------------------------------------------------------------|
E -----------------------------------------------------------------|
B -7-7-0-0-7-7-8-8-7-7-0-0-7-7-8-8-5-5-0-0-5-5-7-7-8-8-8-8-8-8-8-8-|
F#-----------------------------------------------------------------|
B -----------------------------------------------------------------|

===================================================================

Guitar 1
C#-----------------------------------------------------------------|
G#-----------------------------------------------------------------|
E -----------------------------------------------------------------|
B -0-0---0---0---0-0---0---0---0---0-0---0---0---0-0---0---0---0---|
F#-0-0---0---0---0-0---0---0---0---0-0---0---0---0-0---0---0---0---|
B -0-0---0---0---0-0---0---0---0---0-0---0---0---0-0---0---0---0---|
Pm . .   .   .   . .   .   .   .   . .   .   .   . .   .   .   .

Guitar 2
C#-----------------------------------------------------------------|
G#-----------------------------------------------------------------|
E -----------------------------------------------------------------|
B -7-7-0-0-7-7-8-8-7-7-0-0-7-7-8-8-5-5-0-0-5-5-7-7-8-8-8-8-8-8-8-8-|
F#-----------------------------------------------------------------|
B -----------------------------------------------------------------|

===================================================================

Guitar 1
C#-----------------------------------------------------------------|
G#-----------------------------------------------------------------|
E -----------------------------------------------------------------|
B -0-0---0---0---0-0---0---0---0---0-0---0---0---0-0---0---0---0---|
F#-0-0---0---0---0-0---0---0---0---0-0---0---0---0-0---0---0---0---|
B -0-0---0---0---0-0---0---0---0---0-0---0---0---0-0---0---0---0---|
Pm . .   .   .   . .   .   .   .   . .   .   .   . .   .   .   .

Guitar 2 (Orchestra)
C#-----------------------------------------------------------------|
G#-------------------------------------------------------------13--|
E -14------14--15--14------14--15--12------12--14--15------15------|
B -----12--------------12--------------12--------------12----------|
F#-----------------------------------------------------------------|
B -----------------------------------------------------------------|

===================================================================

Guitar 1
C#-----------------------------------------------------------------|
G#-----------------------------------------------------------------|
E -----------------------------------------------------------------|
B -0-0---0---0---0-0---0---0---0---0-0---0---0---0-0---------------|
F#-0-0---0---0---0-0---0---0---0---0-0---0---0---0-0---------------|
B -0-0---0---0---0-0---0---0---0---0-0---0---0---0-0---------------|
Pm . .   .   .   . .   .   .   .   . .   .   .   . .

Guitar 2
C#-----------------------------------------------------------------|
G#-----------------------------------------------------------------|
E -14------14--15--14------14--15--12------12--14--15--------------|
B -----12--------------12--------------12--------------------------|
F#-----------------------------------------------------------------|
B -----------------------------------------------------------------|

===================================================================
===================================================================
===================================================================


Tab Legend
h  - hammer-on
p  - pull-off
/  - slide up
\  - slide down
ps/- pickslide up
ps\- pickslide down
~  - let ring
pm.- palm mute
b  - bend
r  - return from bend
t  - finger tapping
*  - harmonic
x  - dead note
^  - Whammy bar
^\ - Whammy bar (hold down)

That’s the end of it! I hope this helped, and be sure to check out my cover if you
are having problems with the tab. Thanks, oh and one last thing... ROCK OUT!!!!
comments
print report bad tab
3 comments total.
+1 reply
naugustrocks23 wrote on April 20 2012, 11:14 am

Dude thankxs. This is such a sick song.

0 reply
christguitarman wrote on May 21 2012, 04:19 pm

Well i havent learned the song all the way through yet...but ur a boss how did u get this out so fast??? if you have the time could u also make one for "Someone to Hate" i cant figure it out :/ anyways thanx bro God bless

0 reply
tuomas.raunio.9 wrote on May 10 2014, 08:33 pm

Very good tab! But a bit long and hard to read (lots of scrolling)

I want to post or [tab]
guest
You may want to rate the tab now too:
select rating
Please do not post tabs as comments. Select "correction" instead!