Oops, an error
Loading. Please wait.

Someone To Hate Tab

ver1
ver1

Whole song

More versions @911Tabs.com
3,715 views 21 this week
5 commentsread comments
1 2 3 4 5
worth learning
x 5
Autoscroll
+/-
esc
set tempo
stop
Contributor
Difficulty
Tuning
intermediate
B F# B E G# C#
Hey! There's an official Ultimate Guitar app which is ideal
for learning songs when you're away from computer. Get the app
WARNING: You are trying to view
                                    content from Ultimate-Guitar.com
                                    in an unauthorized application,
                                    which is prohibited.

                                    Please use an official Ultimate
                                    Guitar Tabs application for iPhone,
                                    iPad or Android to access legitimate
                                    chords, guitar, bass, and drum tabs
                                    from Ultimate-Guitar.com database.

                                    Type "ultimate guitar tabs" in Apple
                                    App Store's or Android Market's
                                    search to find the application.
----------------------------------------------------------------------------
                              Someone to Hate
                               Demon Hunter
----------------------------------------------------------------------------

What story behind this song. I read somewhere that this song had to do about “Jesus 
coming back and killing all that he didn’t like”. Well, I don’t know about that, but this 
song is insane! What race you are, this song will knock your socks off. Enjoy!

Username: dkm817 (same on X box live)
Youtube Cover: http://www.youtube.com/watch?v=Rvq8khuAO5k
Email: guitardrums@rockfan.com

Guitar 1 Rhythmic     (B F# B E G# C#)
Guitar 2 Lead         (B F# B E G# C#)


Tab Guide...

===================================================================
(end of measures)

===================================================================
===================================================================
(end of parts)

===================================================================
===================================================================
===================================================================
(end of song)

(If there is a “continued” it is because the numbers could not
fit on 1 line.)


Intro 1

Guitar 1
C#-----------------------------------------------------------------|
G#-----------------------------------------------------------------|
E -----------------------------------------------------------------|
B -0-0-0---0-0-0---9*~~~~~~~~~~~~~~~~~~~~~~~~~~~~~~~~~~~~~~~~~~~~~-|
F#-0-0-0---0-0-0---------------------------------------------------|
B -0-0-0---0-0-0---------------------------------------------------|
pm . . .   . . .

Guitar 2
C#-------------------------------------------------------------------|
G#-------------------------------------------------------------------|
E -------------------------------------------------------------------|
B -0-0-0---0-0-0-----------------------------------------------------|
F#-0-0-0---0-0-0---5-5-5-5-4-4-5-5-6-6-6-6-5-5-6-6-10-10-6-6-9-9-5-5-|
B -0-0-0---0-0-0-----------------------------------------------------|
pm . . .   . . .

===================================================================

Guitar 1
C#-----------------------------------------------------------------|
G#-----------------------------------------------------------------|
E -----------------------------------------------------------------|
B -0-0-0---0-0-0---------------------------------------------------|
F#-0-0-0---0-0-0---------------------------------------------------|
B -0-0-0---0-0-0---------------------------------------------------|
pm . . .   . . .

Guitar 2
C#-------------------------------------------------------------------|
G#-------------------------------------------------------------------|
E -------------------------------------------------------------------|
B -------------------------------------------------------------------|
F#-5-5-5-5-5-5-5-5-5-5-5-5-4-4-5-5-6-6-6-6-5-5-6-6-10-10-6-6-9-9-9-9-|
B -------------------------------------------------------------------|

===================================================================

Guitar 1
C#-----------------------------------------------------------------|
G#-----------------------------------------------------------------|
E -----------------------------------------------------------------|
B -0~~~~~~~~~~~~~~~~~~~~~~~~~~~~~~~~~~~~~~~~~~~~~~~~~~~~~~~~~~~~~~-
F#-0~~~~~~~~~~~~~~~~~~~~~~~~~~~~~~~~~~~~~~~~~~~~~~~~~~~~~~~~~~~~~~-
B -0~~~~~~~~~~~~~~~~~~~~~~~~~~~~~~~~~~~~~~~~~~~~~~~~~~~~~~~~~~~~~~-

Guitar 2
C#-------------------------------------------------------------------|
G#-------------------------------------------------------------------|
E -------------------------------------------------------------------|
B -------------------------------------------------------------------|
F#-9-9-9-9-9-9-9-9-5-5-5-5-4-4-5-5-6-6-6-6-5-5-6-6-10-10-6-6-9-9-5-5-|
B -------------------------------------------------------------------|

===================================================================

Guitar 2
C#-------------------------------------------------------------------|
G#-------------------------------------------------------------------|
E -------------------------------------------------------------------|
B -------------------------------------------------------------------|
F#-5-5-5-5-5-5-5-5-5-5-5-5-4-4-5-5-6-6-6-6-5-5-6-6-10-10-6-6-9-9-9-9-|
B -------------------------------------------------------------------|

===================================================================

Guitar 1
C#-----------------------------------------------------------------|
G#-----------------------------------------------------------------|
E -----------------------------------------------------------------|
B -0-------0---------------0---------------0---------------0-------|
F#-0-------0---------------0---------------0---------------0-------|
B -0-------0---------------0---------------0---------------0-------|
pm .       .               .               .               .

Guitar 2
C#-------------------------------------------------------------------|
G#-------------------------------------------------------------------|
E -------------------------------------------------------------------|
B -------------------------------------------------------------------|
F#-9-9-9-9-9-9-9-9-5-5-5-5-4-4-5-5-6-6-6-6-5-5-6-6-10-10-6-6-9-9-5-5-|
B -------------------------------------------------------------------|

===================================================================

Guitar 1
C#-----------------------------------------------------------------|
G#-----------------------------------------------------------------|
E -----------------------------------------------------------------|
B -0-------0---------------0---------------0---------------0-------|
F#-0-------0---------------0---------------0---------------0-------|
B -0-------0---------------0---------------0---------------0-------|
pm .       .               .               .               .

Guitar 2
C#-------------------------------------------------------------------|
G#-------------------------------------------------------------------|
E -------------------------------------------------------------------|
B -------------------------------------------------------------------|
F#-5-5-5-5-5-5-5-5-5-5-5-5-4-4-5-5-6-6-6-6-5-5-6-6-10-10-6-6-9-9-9-9-|
B -------------------------------------------------------------------|

===================================================================

Guitar 1
C#-----------------------------------------------------------------|
G#-----------------------------------------------------------------|
E -----------------------------------------------------------------|
B -0-------0---------------0---------------0---------------0-------|
F#-0-------0---------------0---------------0---------------0-------|
B -0-------0---------------0---------------0---------------0-------|
pm .       .               .               .               .

Guitar 2
C#-------------------------------------------------------------------|
G#-------------------------------------------------------------------|
E -------------------------------------------------------------------|
B -------------------------------------------------------------------|
F#-9-9-9-9-9-9-9-9-5-5-5-5-4-4-5-5-6-6-6-6-5-5-6-6-10-10-6-6-9-9-5-5-|
B -------------------------------------------------------------------|

===================================================================

Guitar 1
C#-----------------------------------------------------------------|
G#-----------------------------------------------------------------|
E -----------------------------------------------------------------|
B -0-------0---------------0---------------0---------------1/~~~~~-|
F#-0-------0---------------0---------------0---------------1/~~~~~-|
B -0-------0---------------0---------------0---------------1/~~~~~-|
pm .       .               .               .

Guitar 2
C#-------------------------------------------------------------------|
G#-------------------------------------------------------------------|
E -------------------------------------------------------------------|
B -------------------------------------------------------------------|
F#-5-5-5-5-5-5-5-5-5-5-5-5-4-4-5-5-6-6-6-6-5-5-6-6-10-10-6-6-9-9-9-9-|
B -------------------------------------------------------------------|

===================================================================
===================================================================


Intro 2

Guitar 1
C#-----------------------------------------------------------------|
G#-----------------------------------------------------------------|
E -----------------------------------------------------------------|
B -0-0-0---0-0-0---0-0-0---0-0-0---0-0-0---0-0-0---0-0-0---0-0-0---|
F#-0-0-0---0-0-0---0-0-0---0-0-0---0-0-0---0-0-0---0-0-0---0-0-0---|
B -0-0-0---0-0-0---0-0-0---0-0-0---0-0-0---0-0-0---0-0-0---0-0-0---|
pm . . .   . . .   . . .   . . .   . . .   . . .   . . .   . . .

Guitar 2
C#-------------------------------------------------------------------|
G#-------------------------------------------------------------------|
E -------------------------------------------------------------------|
B -0-0-0---0-0-0-----------------------------------------------------|
F#-0-0-0---0-0-0---5-5-5-5-4-4-5-5-6-6-6-6-5-5-6-6-10-10-6-6-9-9-5-5-|
B -0-0-0---0-0-0-----------------------------------------------------|
pm . . .   . . .

===================================================================

Guitar 1
C#-----------------------------------------------------------------|
G#-----------------------------------------------------------------|
E -----------------------------------------------------------------|
B -0-0-0---0-0-0---0-0-0---0-0-0---0-0-0---0-0-0---0-0-0---0-0-0---|
F#-0-0-0---0-0-0---0-0-0---0-0-0---0-0-0---0-0-0---0-0-0---0-0-0---|
B -0-0-0---0-0-0---0-0-0---0-0-0---0-0-0---0-0-0---0-0-0---0-0-0---|
pm . . .   . . .   . . .   . . .   . . .   . . .   . . .   . . .

Guitar 2
C#-------------------------------------------------------------------|
G#-------------------------------------------------------------------|
E -------------------------------------------------------------------|
B -------------------------------------------------------------------|
F#-5-5-5-5-5-5-5-5-5-5-5-5-4-4-5-5-6-6-6-6-5-5-6-6-10-10-6-6-9-9-9-9-|
B -------------------------------------------------------------------|

===================================================================

Guitar 1
C#-----------------------------------------------------------------|
G#-----------------------------------------------------------------|
E -----------------------------------------------------------------|
B -0-0-0---0-0-0---0-0-0---0-0-0---0-0-0---0-0-0---0-0-0---0-0-0---|
F#-0-0-0---0-0-0---0-0-0---0-0-0---0-0-0---0-0-0---0-0-0---0-0-0---|
B -0-0-0---0-0-0---0-0-0---0-0-0---0-0-0---0-0-0---0-0-0---0-0-0---|
pm . . .   . . .   . . .   . . .   . . .   . . .   . . .   . . .

Guitar 2
C#-------------------------------------------------------------------|
G#-------------------------------------------------------------------|
E -------------------------------------------------------------------|
B -------------------------------------------------------------------|
F#-9-9-9-9-9-9-9-9-5-5-5-5-4-4-5-5-6-6-6-6-5-5-6-6-10-10-6-6-9-9-5-5-|
B -------------------------------------------------------------------|

===================================================================

Guitar 1
C#-----------------------------------------------------------------|
G#-----------------------------------------------------------------|
E -----------------------------------------------------------------|
B -0-0-0---0-0-0---0-0-0---0-0-0---0-0-0---0-0-0---0-0-0---0-0-0---|
F#-0-0-0---0-0-0---0-0-0---0-0-0---0-0-0---0-0-0---0-0-0---0-0-0---|
B -0-0-0---0-0-0---0-0-0---0-0-0---0-0-0---0-0-0---0-0-0---0-0-0---|
pm . . .   . . .   . . .   . . .   . . .   . . .   . . .   . . .

Guitar 2
C#-------------------------------------------------------------------|
G#-------------------------------------------------------------------|
E -------------------------------------------------------------------|
B -------------------------------------------------------------------|
F#-5-5-5-5-5-5-5-5-5-5-5-5-4-4-5-5-6-6-6-6-5-5-6-6-10-10-6-6-9-9-9-9-|
B -------------------------------------------------------------------|

===================================================================

Guitar 1
C#-----------------------------------------------------------------|
G#-----------------------------------------------------------------|
E -----------------------------------------------------------------|
B -----------------0~~~~~~-0-0-0---0-0-0---0-0-0---0-0-0---0-0-0---|
F#-12~~\~~~~~~~~~~-0~~~~~~-0-0-0---0-0-0---0-0-0---0-0-0---0-0-0---|
B -----------------0~~~~~~-0-0-0---0-0-0---0-0-0---0-0-0---0-0-0---|
pm . . .   . . .           . . .   . . .   . . .   . . .   . . .

Guitar 2
C#-------------------------------------------------------------------|
G#-------------------------------------------------------------------|
E -------------------------------------------------------------------|
B -12~~\~~~~~~~~~~---------------------------------------------------|
F#-----------------5-5-5-5-4-4-5-5-6-6-6-6-5-5-6-6-10-10-6-6-9-9-5-5-|
B -------------------------------------------------------------------|

===================================================================

Guitar 1
C#-----------------------------------------------------------------|
G#-----------------------------------------------------------------|
E -----------------------------------------------------------------|
B -0-0-0---0-0-0---0-0-0---0-0-0---0-0-0---0-0-0---0-0-0---0-0-0---|
F#-0-0-0---0-0-0---0-0-0---0-0-0---0-0-0---0-0-0---0-0-0---0-0-0---|
B -0-0-0---0-0-0---0-0-0---0-0-0---0-0-0---0-0-0---0-0-0---0-0-0---|
pm . . .   . . .   . . .   . . .   . . .   . . .   . . .   . . .

Guitar 2
C#-------------------------------------------------------------------|
G#-------------------------------------------------------------------|
E -------------------------------------------------------------------|
B -------------------------------------------------------------------|
F#-5-5-5-5-5-5-5-5-5-5-5-5-4-4-5-5-6-6-6-6-5-5-6-6-10-10-6-6-9-9-9-9-|
B -------------------------------------------------------------------|

===================================================================

Guitar 1
C#-----------------------------------------------------------------|
G#-----------------------------------------------------------------|
E -----------------------------------------------------------------|
B -0-0-0---0-0-0---0-0-0---0-0-0---0-0-0---0-0-0---0-0-0---0-0-0---|
F#-0-0-0---0-0-0---0-0-0---0-0-0---0-0-0---0-0-0---0-0-0---0-0-0---|
B -0-0-0---0-0-0---0-0-0---0-0-0---0-0-0---0-0-0---0-0-0---0-0-0---|
pm . . .   . . .   . . .   . . .   . . .   . . .   . . .   . . .

Guitar 2
C#-------------------------------------------------------------------|
G#-------------------------------------------------------------------|
E -------------------------------------------------------------------|
B -------------------------------------------------------------------|
F#-9-9-9-9-9-9-9-9-5-5-5-5-4-4-5-5-6-6-6-6-5-5-6-6-10-10-6-6-9-9-5-5-|
B -------------------------------------------------------------------|

===================================================================

Guitar 1
C#-----------------------------------------------------------------|
G#-----------------------------------------------------------------|
E -----------------------------------------------------------------|
B -0-0-0---0-0-0---0-0-0---0-0-0---0-0-0---0-0-0---0-0-0---0-0-0---|
F#-0-0-0---0-0-0---0-0-0---0-0-0---0-0-0---0-0-0---0-0-0---0-0-0---|
B -0-0-0---0-0-0---0-0-0---0-0-0---0-0-0---0-0-0---0-0-0---0-0-0---|
pm . . .   . . .   . . .   . . .   . . .   . . .   . . .   . . .

Guitar 2
C#-------------------------------------------------------------------|
G#-------------------------------------------------------------------|
E -------------------------------------------------------------------|
B -------------------------------------------------------------------|
F#-5-5-5-5-5-5-5-5-5-5-5-5-4-4-5-5-6-6-6-6-5-5-6-6-10-10-6-6-9-9-9-9-|
B -------------------------------------------------------------------|

===================================================================
===================================================================


Verse

(x2)

Guitar 1
C#---------------------------------------------------------------------|
G#---------------------------------------------------------------------|
E ---------------------------------------------------------------------|
B -0-0-0---0-0-0---7-7-7-7-6-6-7-7-8-8-8-8-7-7-8-8-12-12-8-8-10-10-7-7-|
F#-0-0-0---0-0-0-------------------------------------------------------|
B -0-0-0---0-0-0-------------------------------------------------------|
pm . . .   . . .

Guitar 2
C#-------------------------------------------------------------------|
G#-------------------------------------------------------------------|
E -------------------------------------------------------------------|
B -0-0-0---0-0-0-----------------------------------------------------|
F#-0-0-0---0-0-0---5-5-5-5-4-4-5-5-6-6-6-6-5-5-6-6-10-10-6-6-9-9-5-5-|
B -0-0-0---0-0-0-----------------------------------------------------|
pm . . .   . . .

===================================================================

Guitar 1
C#----------------------------------------------------------------------|
G#----------------------------------------------------------------------|
E -----------------------------------------------------------7~~~~~~~~~-|
B -7-7-7-7-7-7-7-7-7-7-7-7-6-6-7-7-8-8-8-8-7-7-8-8-12-12-8-8-x----------|
F#-----------------------------------------------------------5~~~~~~~~~-|
B ----------------------------------------------------------------------|

Guitar 2
C#-------------------------------------------------------------------|
G#-------------------------------------------------------------------|
E -------------------------------------------------------------------|
B -0-0-0---0-0-0-----------------------------------------------------|
F#-0-0-0---0-0-0---5-5-5-5-4-4-5-5-6-6-6-6-5-5-6-6-10-10-6-6-9-9-9-9-|
B -0-0-0---0-0-0-----------------------------------------------------|
pm . . .   . . .

===================================================================

Guitar 1
C#----------------------------------------------------------------|
G#----------------------------------------------------------------|
E -~~~~~~~~~~~~~~~~~~~~~~~~~~~~~~~~~~~~~~~~~~~~~~~~~~~~~~~~~~~~~~-
B ----------------------------------------------------------------
F#-~~~~~~~~~~~~~~~~~~~~~~~~~~~~~~~~~~~~~~~~~~~~~~~~~~~~~~~~~~~~~~-
B ----------------------------------------------------------------

Guitar 2
C#-------------------------------------------------------------------|
G#-------------------------------------------------------------------|
E -------------------------------------------------------------------|
B -0-0-0---0-0-0-----------------------------------------------------|
F#-0-0-0---0-0-0---5-5-5-5-4-4-5-5-6-6-6-6-5-5-6-6-10-10-6-6-9-9-5-5-|
B -0-0-0---0-0-0-----------------------------------------------------|
pm . . .   . . .

===================================================================

Guitar 2
C#-------------------------------------------------------------------|
G#-------------------------------------------------------------------|
E -------------------------------------------------------------------|
B -0-0-0---0-0-0-----------------------------------------------------|
F#-0-0-0---0-0-0---5-5-5-5-4-4-5-5-6-6-6-6-5-5-6-6-10-10-6-6-9-9-9-9-|
B -0-0-0---0-0-0-----------------------------------------------------|
pm . . .   . . .

===================================================================
===================================================================


Break Off 1

Guitar 1
C#-----------------------------------------------------------------|
G#-----------------------------------------------------------------|
E -----------------------------------------------------------------|
B -0~~~~~~~~~~~~~~-3~~~~~~~~~~~~~~-2~~~~~~~~~~~~~~-----------------|
F#-0~~~~~~~~~~~~~~-3~~~~~~~~~~~~~~-2~~~~~~~~~~~~~~-----------------|
B -0~~~~~~~~~~~~~~-3~~~~~~~~~~~~~~-2~~~~~~~~~~~~~~-7*~~~~~~~~~~~~~-|

Guitar 2
C#-----------------------------------------------------------------|
G#-----------------------------------------------------------------|
E -7~~~~~~~~~~~~~~-10~~~~~~~~~~~~~-9~~~~~~~~~~~~~~-6~~~~~~~~~~~~~~-|
B -x---------------x---------------x---------------x---------------|
F#-5~~~~~~~~~~~~~~-8~~~~~~~~~~~~~~-7~~~~~~~~~~~~~~-4~~~~~~~~~~~~~~-|
B -----------------------------------------------------------------|

===================================================================
===================================================================


Pre Chorus

Guitar 1
C#------------------------------------------------------------------|
G#------------------------------------------------------------------|
E ------------------------------------------------------------------|
B -0~~~~~~~~~~~~~~--------------------------------------------------|
F#-0~~~~~~~~~~~~~~-5-5-5-5-5-5-5-5-5-5-5-5-5-5-5-5b5b5b5b5b5b5b5b5b-|
B -0~~~~~~~~~~~~~~--------------------------------------------------|
pm .

Guitar 2
C#------------------------------------------------------------------|
G#------------------------------------------------------------------|
E ------------------------------------------------------------------|
B -0~~~~~~~~~~~~~~--------------------------------------------------|
F#-0~~~~~~~~~~~~~~-6-6-6-6-6-6-6-6-6-6-6-6-6-6-6-6b6b6b6b6b6b6b6b6b-|
B -0~~~~~~~~~~~~~~--------------------------------------------------|
pm .

===================================================================

Guitar 1
C#------------------------------------------------------------------|
G#------------------------------------------------------------------|
E ------------------------------------------------------------------|
B -0~~~~~~~~~~~~~~--------------------------------------------------|
F#-0~~~~~~~~~~~~~~-5-5-5-5-5-5-5-5-5-5-5-5-5-5-5-5b5b5b5b5b5b5b5b5b-|
B -0~~~~~~~~~~~~~~--------------------------------------------------|
pm .

Guitar 2
C#------------------------------------------------------------------|
G#------------------------------------------------------------------|
E ------------------------------------------------------------------|
B -0~~~~~~~~~~~~~~--------------------------------------------------|
F#-0~~~~~~~~~~~~~~-6-6-6-6-6-6-6-6-6-6-6-6-6-6-6-6b6b6b6b6b6b6b6b6b-|
B -0~~~~~~~~~~~~~~--------------------------------------------------|
pm .

===================================================================

Guitar 1
C#------------------------------------------------------------------|
G#------------------------------------------------------------------|
E ------------------------------------------------------------------|
B -0~~~~~~~~~~~~~~--------------------------------------------------|
F#-0~~~~~~~~~~~~~~-5-5-5-5-5-5-5-5-5-5-5-5-5-5-5-5b5b5b5b5b5b5b5b5b-|
B -0~~~~~~~~~~~~~~--------------------------------------------------|
pm .

Guitar 2
C#------------------------------------------------------------------|
G#------------------------------------------------------------------|
E ------------------------------------------------------------------|
B -0~~~~~~~~~~~~~~--------------------------------------------------|
F#-0~~~~~~~~~~~~~~-6-6-6-6-6-6-6-6-6-6-6-6-6-6-6-6b6b6b6b6b6b6b6b6b-|
B -0~~~~~~~~~~~~~~--------------------------------------------------|
pm .

===================================================================

Guitar 1
C#-----------------------------------------------------------------|
G#-----------------------------------------------------------------|
E -----------------------------------------------------------------|
B -0~~~~~~~~~~~~~~-3~~~~~~~~~~~~~~-2~~~~~~~~~~~~~~-----------------|
F#-0~~~~~~~~~~~~~~-3~~~~~~~~~~~~~~-2~~~~~~~~~~~~~~-----------------|
B -0~~~~~~~~~~~~~~-3~~~~~~~~~~~~~~-2~~~~~~~~~~~~~~-7*~~~~~~~~~~~~~-|

Guitar 2
C#-----------------------------------------------------------------|
G#-----------------------------------------------------------------|
E -7~~~~~~~~~~~~~~-10~~~~~~~~~~~~~-9~~~~~~~~~~~~~~-6~~~~~~~~~~~~~~-|
B -x---------------x---------------x---------------x---------------|
F#-5~~~~~~~~~~~~~~-8~~~~~~~~~~~~~~-7~~~~~~~~~~~~~~-4~~~~~~~~~~~~~~-|
B -----------------------------------------------------------------|

===================================================================

Guitar 1
C#------------------------------------------------------------------|
G#------------------------------------------------------------------|
E ------------------------------------------------------------------|
B -0~~~~~~~~~~~~~~--------------------------------------------------|
F#-0~~~~~~~~~~~~~~-5-5-5-5-5-5-5-5-5-5-5-5-5-5-5-5b5b5b5b5b5b5b5b5b-|
B -0~~~~~~~~~~~~~~--------------------------------------------------|
pm .

Guitar 2
C#------------------------------------------------------------------|
G#------------------------------------------------------------------|
E ------------------------------------------------------------------|
B -0~~~~~~~~~~~~~~--------------------------------------------------|
F#-0~~~~~~~~~~~~~~-6-6-6-6-6-6-6-6-6-6-6-6-6-6-6-6b6b6b6b6b6b6b6b6b-|
B -0~~~~~~~~~~~~~~--------------------------------------------------|
pm .

===================================================================

Guitar 1
C#------------------------------------------------------------------|
G#------------------------------------------------------------------|
E ------------------------------------------------------------------|
B -0~~~~~~~~~~~~~~--------------------------------------------------|
F#-0~~~~~~~~~~~~~~-5-5-5-5-5-5-5-5-5-5-5-5-5-5-5-5b5b5b5b5b5b5b5b5b-|
B -0~~~~~~~~~~~~~~--------------------------------------------------|
pm .

Guitar 2
C#------------------------------------------------------------------|
G#------------------------------------------------------------------|
E ------------------------------------------------------------------|
B -0~~~~~~~~~~~~~~--------------------------------------------------|
F#-0~~~~~~~~~~~~~~-6-6-6-6-6-6-6-6-6-6-6-6-6-6-6-6b6b6b6b6b6b6b6b6b-|
B -0~~~~~~~~~~~~~~--------------------------------------------------|
pm .

===================================================================

Guitar 1
C#------------------------------------------------------------------|
G#------------------------------------------------------------------|
E ------------------------------------------------------------------|
B -0~~~~~~~~~~~~~~--------------------------------------------------|
F#-0~~~~~~~~~~~~~~-5-5-5-5-5-5-5-5-5-5-5-5-5-5-5-5b5b5b5b5b5b5b5b5b-|
B -0~~~~~~~~~~~~~~--------------------------------------------------|
pm .

Guitar 2
C#------------------------------------------------------------------|
G#------------------------------------------------------------------|
E ------------------------------------------------------------------|
B -0~~~~~~~~~~~~~~--------------------------------------------------|
F#-0~~~~~~~~~~~~~~-6-6-6-6-6-6-6-6-6-6-6-6-6-6-6-6b6b6b6b6b6b6b6b6b-|
B -0~~~~~~~~~~~~~~--------------------------------------------------|
pm .

===================================================================

Guitar 1
C#-----------------------------------------------------------------|
G#-----------------------------------------------------------------|
E -------------------------------------------------6~~~~~~~~~~~~~~-|
B -0~~~~~~~~~~~~~~-3~~~~~~~~~~~~~~-2~~~~~~~~~~~~~~-6~~~~~~~~~~~~~~-|
F#-0~~~~~~~~~~~~~~-3~~~~~~~~~~~~~~-2~~~~~~~~~~~~~~-4~~~~~~~~~~~~~~-|
B -0~~~~~~~~~~~~~~-3~~~~~~~~~~~~~~-2~~~~~~~~~~~~~~-----------------|

Guitar 2
C#-----------------------------------------------------------------|
G#-----------------------------------------------------------------|
E -7~~~~~~~~~~~~~~-10~~~~~~~~~~~~~-9~~~~~~~~~~~~~~-6~~~~~~~~~~~~~~-|
B -x---------------x---------------x---------------x---------------|
F#-5~~~~~~~~~~~~~~-8~~~~~~~~~~~~~~-7~~~~~~~~~~~~~~-4~~~~~~~~~~~~~~-|
B -----------------------------------------------------------------|

===================================================================
===================================================================


Chorus 1

(x2)

Guitar 1
C#-----------------------------------------------------------------|
G#-----------------------------------------------------------------|
E -----------------------------------------------------------------|
B -----------------------------------------------------------------|
F#-5-----------7-----------8-----------7-----------10------8-------|
B -----0---0-------0---0-------0---0-------0---0-------0-------0---|
pm     .   .       .   .       .   .       .   .       .       .

Guitar 2
C#-----------------------------------------------------------------|
G#-----------------------------------------------------------------|
E -7---7---7---7---7---7---7---7---7---7---7---7---7---7---7---7---|
B -x---x---x---x---x---x---x---x---x---x---x---x---x---x---x---x---|
F#-5---5---5---5---5---5---5---5---5---5---5---5---5---5---5---5---|
B -----------------------------------------------------------------|

===================================================================

Guitar 1
C#-----------------------------------------------------------------|
G#-----------------------------------------------------------------|
E -----------------------------------------------------------------|
B -----------------------------------------------------------------|
F#-5-----------7-----------8-----------7-----------10------8-------|
B -----0---0-------0---0-------0---0-------0---0-------0-------0---|
pm     .   .       .   .       .   .       .   .       .       .

Guitar 2
C#-----------------------------------------------------------------|
G#-----------------------------------------------------------------|
E -9---9---9---9---9---9---9---9---9---9---9---9---9---9---9---9---|
B -x---x---x---x---x---x---x---x---x---x---x---x---x---x---x---x---|
F#-7---7---7---7---7---7---7---7---7---7---7---7---7---7---7---7---|
B -----------------------------------------------------------------|

===================================================================

Guitar 1
C#-----------------------------------------------------------------|
G#-----------------------------------------------------------------|
E -----------------------------------------------------------------|
B -----------------------------------------------------------------|
F#-5-----------7-----------8-----------7-----------10------8-------|
B -----0---0-------0---0-------0---0-------0---0-------0-------0---|
pm     .   .       .   .       .   .       .   .       .       .

Guitar 2
C#-----------------------------------------------------------------|
G#-----------------------------------------------------------------|
E -10--10--10--10--10--10--10--10--10--10--10--10--10--10--10--10--|
B -x---x---x---x---x---x---x---x---x---x---x---x---x---x---x---x---|
F#-8---8---8---8---8---8---8---8---8---8---8---8---8---8---8---8---|
B -----------------------------------------------------------------|

===================================================================

Guitar 1
C#-----------------------------------------------------------------|
G#-----------------------------------------------------------------|
E -----------------------------------------------------------------|
B -----------------------------------------------------------------|
F#-4-----------7-----------5-----------4-----------5-------7-------|
B -----0---0-------0---0-------0---0-------0---0-------0-------0---|
pm     .   .       .   .       .   .       .   .       .       .

Guitar 2
C#-----------------------------------------------------------------|
G#-----------------------------------------------------------------|
E -6---6---6---6---6---6---6---6---6---6---6---6---6---6---6---6---|
B -x---x---x---x---x---x---x---x---x---x---x---x---x---x---x---x---|
F#-4---4---4---4---4---4---4---4---4---4---4---4---4---4---4---4---|
B -----------------------------------------------------------------|

===================================================================
===================================================================


Bridge 1

Guitar 1
C#-----------------------------------------------------------------|
G#-----------------------------------------------------------------|
E -----------------------------------------------------------------|
B -0-0-0---0-0-0---0-0-0---0-0-0---0-0-0---0-0-0---0-0-0---0-0-0---|
F#-0-0-0---0-0-0---0-0-0---0-0-0---0-0-0---0-0-0---0-0-0---0-0-0---|
B -0-0-0---0-0-0---0-0-0---0-0-0---0-0-0---0-0-0---0-0-0---0-0-0---|
pm . . .   . . .   . . .   . . .   . . .   . . .   . . .   . . .

Guitar 2
C#-------------------------------------------------------------------|
G#-------------------------------------------------------------------|
E -------------------------------------------------------------------|
B -0-0-0---0-0-0-----------------------------------------------------|
F#-0-0-0---0-0-0---5-5-5-5-4-4-5-5-6-6-6-6-5-5-6-6-10-10-6-6-9-9-5-5-|
B -0-0-0---0-0-0-----------------------------------------------------|
pm . . .   . . .

===================================================================

Guitar 1
C#-----------------------------------------------------------------|
G#-----------------------------------------------------------------|
E -----------------------------------------------------------------|
B -0-0-0---0-0-0---0-0-0---0-0-0---0-0-0---0-0-0---0-0-0---0-0-0---|
F#-0-0-0---0-0-0---0-0-0---0-0-0---0-0-0---0-0-0---0-0-0---0-0-0---|
B -0-0-0---0-0-0---0-0-0---0-0-0---0-0-0---0-0-0---0-0-0---0-0-0---|
pm . . .   . . .   . . .   . . .   . . .   . . .   . . .   . . .

Guitar 2
C#-------------------------------------------------------------------|
G#-------------------------------------------------------------------|
E -------------------------------------------------------------------|
B -------------------------------------------------------------------|
F#-5-5-5-5-5-5-5-5-5-5-5-5-4-4-5-5-6-6-6-6-5-5-6-6-10-10-6-6-9-9-9-9-|
B -------------------------------------------------------------------|

===================================================================

Guitar 1
C#-----------------------------------------------------------------|
G#-----------------------------------------------------------------|
E -----------------------------------------------------------------|
B -0-0-0---0-0-0---0-0-0---0-0-0---0-0-0---0-0-0---0-0-0---0-0-0---|
F#-0-0-0---0-0-0---0-0-0---0-0-0---0-0-0---0-0-0---0-0-0---0-0-0---|
B -0-0-0---0-0-0---0-0-0---0-0-0---0-0-0---0-0-0---0-0-0---0-0-0---|
pm . . .   . . .   . . .   . . .   . . .   . . .   . . .   . . .

Guitar 2
C#-------------------------------------------------------------------|
G#-------------------------------------------------------------------|
E -------------------------------------------------------------------|
B -------------------------------------------------------------------|
F#-9-9-9-9-9-9-9-9-5-5-5-5-4-4-5-5-6-6-6-6-5-5-6-6-10-10-6-6-9-9-5-5-|
B -------------------------------------------------------------------|

===================================================================

Guitar 1
C#-----------------------------------------------------------------|
G#-----------------------------------------------------------------|
E -----------------------------------------------------------------|
B -0-0-0---0-0-0---0-0-0---0-0-0---0-0-0---0-0-0---0-0-0---0-0-0---|
F#-0-0-0---0-0-0---0-0-0---0-0-0---0-0-0---0-0-0---0-0-0---0-0-0---|
B -0-0-0---0-0-0---0-0-0---0-0-0---0-0-0---0-0-0---0-0-0---0-0-0---|
pm . . .   . . .   . . .   . . .   . . .   . . .   . . .   . . .

Guitar 2
C#-------------------------------------------------------------------|
G#-------------------------------------------------------------------|
E -------------------------------------------------------------------|
B -------------------------------------------------------------------|
F#-5-5-5-5-5-5-5-5-5-5-5-5-4-4-5-5-6-6-6-6-5-5-6-6-10-10-6-6-9-9-9-9-|
B -------------------------------------------------------------------|

===================================================================
===================================================================


Verse

(x2)

Guitar 1
C#---------------------------------------------------------------------|
G#---------------------------------------------------------------------|
E ---------------------------------------------------------------------|
B -0-0-0---0-0-0---7-7-7-7-6-6-7-7-8-8-8-8-7-7-8-8-12-12-8-8-10-10-7-7-|
F#-0-0-0---0-0-0-------------------------------------------------------|
B -0-0-0---0-0-0-------------------------------------------------------|
pm . . .   . . .

Guitar 2
C#-------------------------------------------------------------------|
G#-------------------------------------------------------------------|
E -------------------------------------------------------------------|
B -0-0-0---0-0-0-----------------------------------------------------|
F#-0-0-0---0-0-0---5-5-5-5-4-4-5-5-6-6-6-6-5-5-6-6-10-10-6-6-9-9-5-5-|
B -0-0-0---0-0-0-----------------------------------------------------|
pm . . .   . . .

===================================================================

Guitar 1
C#----------------------------------------------------------------------|
G#----------------------------------------------------------------------|
E -----------------------------------------------------------7~~~~~~~~~-|
B -7-7-7-7-7-7-7-7-7-7-7-7-6-6-7-7-8-8-8-8-7-7-8-8-12-12-8-8-x----------|
F#-----------------------------------------------------------5~~~~~~~~~-|
B ----------------------------------------------------------------------|

Guitar 2
C#-------------------------------------------------------------------|
G#-------------------------------------------------------------------|
E -------------------------------------------------------------------|
B -0-0-0---0-0-0-----------------------------------------------------|
F#-0-0-0---0-0-0---5-5-5-5-4-4-5-5-6-6-6-6-5-5-6-6-10-10-6-6-9-9-9-9-|
B -0-0-0---0-0-0-----------------------------------------------------|
pm . . .   . . .

===================================================================

Guitar 1
C#----------------------------------------------------------------|
G#----------------------------------------------------------------|
E -~~~~~~~~~~~~~~~~~~~~~~~~~~~~~~~~~~~~~~~~~~~~~~~~~~~~~~~~~~~~~~-
B ----------------------------------------------------------------
F#-~~~~~~~~~~~~~~~~~~~~~~~~~~~~~~~~~~~~~~~~~~~~~~~~~~~~~~~~~~~~~~-
B ----------------------------------------------------------------

Guitar 2
C#-------------------------------------------------------------------|
G#-------------------------------------------------------------------|
E -------------------------------------------------------------------|
B -0-0-0---0-0-0-----------------------------------------------------|
F#-0-0-0---0-0-0---5-5-5-5-4-4-5-5-6-6-6-6-5-5-6-6-10-10-6-6-9-9-5-5-|
B -0-0-0---0-0-0-----------------------------------------------------|
pm . . .   . . .

===================================================================

Guitar 2
C#-------------------------------------------------------------------|
G#-------------------------------------------------------------------|
E -------------------------------------------------------------------|
B -0-0-0---0-0-0-----------------------------------------------------|
F#-0-0-0---0-0-0---5-5-5-5-4-4-5-5-6-6-6-6-5-5-6-6-10-10-6-6-9-9-9-9-|
B -0-0-0---0-0-0-----------------------------------------------------|
pm . . .   . . .

===================================================================
===================================================================


Break Off 1

Guitar 1
C#-----------------------------------------------------------------|
G#-----------------------------------------------------------------|
E -----------------------------------------------------------------|
B -0~~~~~~~~~~~~~~-3~~~~~~~~~~~~~~-2~~~~~~~~~~~~~~-----------------|
F#-0~~~~~~~~~~~~~~-3~~~~~~~~~~~~~~-2~~~~~~~~~~~~~~-----------------|
B -0~~~~~~~~~~~~~~-3~~~~~~~~~~~~~~-2~~~~~~~~~~~~~~-7*~~~~~~~~~~~~~-|

Guitar 2
C#-----------------------------------------------------------------|
G#-----------------------------------------------------------------|
E -7~~~~~~~~~~~~~~-10~~~~~~~~~~~~~-9~~~~~~~~~~~~~~-6~~~~~~~~~~~~~~-|
B -x---------------x---------------x---------------x---------------|
F#-5~~~~~~~~~~~~~~-8~~~~~~~~~~~~~~-7~~~~~~~~~~~~~~-4~~~~~~~~~~~~~~-|
B -----------------------------------------------------------------|

===================================================================
===================================================================


Pre Chorus

Guitar 1
C#------------------------------------------------------------------|
G#------------------------------------------------------------------|
E ------------------------------------------------------------------|
B -0~~~~~~~~~~~~~~--------------------------------------------------|
F#-0~~~~~~~~~~~~~~-5-5-5-5-5-5-5-5-5-5-5-5-5-5-5-5b5b5b5b5b5b5b5b5b-|
B -0~~~~~~~~~~~~~~--------------------------------------------------|
pm .

Guitar 2
C#------------------------------------------------------------------|
G#------------------------------------------------------------------|
E ------------------------------------------------------------------|
B -0~~~~~~~~~~~~~~--------------------------------------------------|
F#-0~~~~~~~~~~~~~~-6-6-6-6-6-6-6-6-6-6-6-6-6-6-6-6b6b6b6b6b6b6b6b6b-|
B -0~~~~~~~~~~~~~~--------------------------------------------------|
pm .

===================================================================

Guitar 1
C#------------------------------------------------------------------|
G#------------------------------------------------------------------|
E ------------------------------------------------------------------|
B -0~~~~~~~~~~~~~~--------------------------------------------------|
F#-0~~~~~~~~~~~~~~-5-5-5-5-5-5-5-5-5-5-5-5-5-5-5-5b5b5b5b5b5b5b5b5b-|
B -0~~~~~~~~~~~~~~--------------------------------------------------|
pm .

Guitar 2
C#------------------------------------------------------------------|
G#------------------------------------------------------------------|
E ------------------------------------------------------------------|
B -0~~~~~~~~~~~~~~--------------------------------------------------|
F#-0~~~~~~~~~~~~~~-6-6-6-6-6-6-6-6-6-6-6-6-6-6-6-6b6b6b6b6b6b6b6b6b-|
B -0~~~~~~~~~~~~~~--------------------------------------------------|
pm .

===================================================================

Guitar 1
C#------------------------------------------------------------------|
G#------------------------------------------------------------------|
E ------------------------------------------------------------------|
B -0~~~~~~~~~~~~~~--------------------------------------------------|
F#-0~~~~~~~~~~~~~~-5-5-5-5-5-5-5-5-5-5-5-5-5-5-5-5b5b5b5b5b5b5b5b5b-|
B -0~~~~~~~~~~~~~~--------------------------------------------------|
pm .

Guitar 2
C#------------------------------------------------------------------|
G#------------------------------------------------------------------|
E ------------------------------------------------------------------|
B -0~~~~~~~~~~~~~~--------------------------------------------------|
F#-0~~~~~~~~~~~~~~-6-6-6-6-6-6-6-6-6-6-6-6-6-6-6-6b6b6b6b6b6b6b6b6b-|
B -0~~~~~~~~~~~~~~--------------------------------------------------|
pm .

===================================================================

Guitar 1
C#-----------------------------------------------------------------|
G#-----------------------------------------------------------------|
E -----------------------------------------------------------------|
B -0~~~~~~~~~~~~~~-3~~~~~~~~~~~~~~-2~~~~~~~~~~~~~~-----------------|
F#-0~~~~~~~~~~~~~~-3~~~~~~~~~~~~~~-2~~~~~~~~~~~~~~-----------------|
B -0~~~~~~~~~~~~~~-3~~~~~~~~~~~~~~-2~~~~~~~~~~~~~~-7*~~~~~~~~~~~~~-|

Guitar 2
C#-----------------------------------------------------------------|
G#-----------------------------------------------------------------|
E -7~~~~~~~~~~~~~~-10~~~~~~~~~~~~~-9~~~~~~~~~~~~~~-6~~~~~~~~~~~~~~-|
B -x---------------x---------------x---------------x---------------|
F#-5~~~~~~~~~~~~~~-8~~~~~~~~~~~~~~-7~~~~~~~~~~~~~~-4~~~~~~~~~~~~~~-|
B -----------------------------------------------------------------|

===================================================================

Guitar 1
C#------------------------------------------------------------------|
G#------------------------------------------------------------------|
E ------------------------------------------------------------------|
B -0~~~~~~~~~~~~~~--------------------------------------------------|
F#-0~~~~~~~~~~~~~~-5-5-5-5-5-5-5-5-5-5-5-5-5-5-5-5b5b5b5b5b5b5b5b5b-|
B -0~~~~~~~~~~~~~~--------------------------------------------------|
pm .

Guitar 2
C#------------------------------------------------------------------|
G#------------------------------------------------------------------|
E ------------------------------------------------------------------|
B -0~~~~~~~~~~~~~~--------------------------------------------------|
F#-0~~~~~~~~~~~~~~-6-6-6-6-6-6-6-6-6-6-6-6-6-6-6-6b6b6b6b6b6b6b6b6b-|
B -0~~~~~~~~~~~~~~--------------------------------------------------|
pm .

===================================================================

Guitar 1
C#------------------------------------------------------------------|
G#------------------------------------------------------------------|
E ------------------------------------------------------------------|
B -0~~~~~~~~~~~~~~--------------------------------------------------|
F#-0~~~~~~~~~~~~~~-5-5-5-5-5-5-5-5-5-5-5-5-5-5-5-5b5b5b5b5b5b5b5b5b-|
B -0~~~~~~~~~~~~~~--------------------------------------------------|
pm .

Guitar 2
C#------------------------------------------------------------------|
G#------------------------------------------------------------------|
E ------------------------------------------------------------------|
B -0~~~~~~~~~~~~~~--------------------------------------------------|
F#-0~~~~~~~~~~~~~~-6-6-6-6-6-6-6-6-6-6-6-6-6-6-6-6b6b6b6b6b6b6b6b6b-|
B -0~~~~~~~~~~~~~~--------------------------------------------------|
pm .

===================================================================

Guitar 1
C#------------------------------------------------------------------|
G#------------------------------------------------------------------|
E ------------------------------------------------------------------|
B -0~~~~~~~~~~~~~~--------------------------------------------------|
F#-0~~~~~~~~~~~~~~-5-5-5-5-5-5-5-5-5-5-5-5-5-5-5-5b5b5b5b5b5b5b5b5b-|
B -0~~~~~~~~~~~~~~--------------------------------------------------|
pm .

Guitar 2
C#------------------------------------------------------------------|
G#------------------------------------------------------------------|
E ------------------------------------------------------------------|
B -0~~~~~~~~~~~~~~--------------------------------------------------|
F#-0~~~~~~~~~~~~~~-6-6-6-6-6-6-6-6-6-6-6-6-6-6-6-6b6b6b6b6b6b6b6b6b-|
B -0~~~~~~~~~~~~~~--------------------------------------------------|
pm .

===================================================================

Guitar 1
C#-----------------------------------------------------------------|
G#-----------------------------------------------------------------|
E -------------------------------------------------6~~~~~~~~~~~~~~-|
B -0~~~~~~~~~~~~~~-3~~~~~~~~~~~~~~-2~~~~~~~~~~~~~~-6~~~~~~~~~~~~~~-|
F#-0~~~~~~~~~~~~~~-3~~~~~~~~~~~~~~-2~~~~~~~~~~~~~~-4~~~~~~~~~~~~~~-|
B -0~~~~~~~~~~~~~~-3~~~~~~~~~~~~~~-2~~~~~~~~~~~~~~-----------------|

Guitar 2
C#-----------------------------------------------------------------|
G#-----------------------------------------------------------------|
E -7~~~~~~~~~~~~~~-10~~~~~~~~~~~~~-9~~~~~~~~~~~~~~-6~~~~~~~~~~~~~~-|
B -x---------------x---------------x---------------x---------------|
F#-5~~~~~~~~~~~~~~-8~~~~~~~~~~~~~~-7~~~~~~~~~~~~~~-4~~~~~~~~~~~~~~-|
B -----------------------------------------------------------------|

===================================================================
===================================================================


Chorus 1

(x2)

Guitar 1
C#-----------------------------------------------------------------|
G#-----------------------------------------------------------------|
E -----------------------------------------------------------------|
B -----------------------------------------------------------------|
F#-5-----------7-----------8-----------7-----------10------8-------|
B -----0---0-------0---0-------0---0-------0---0-------0-------0---|
pm     .   .       .   .       .   .       .   .       .       .

Guitar 2
C#-----------------------------------------------------------------|
G#-----------------------------------------------------------------|
E -7---7---7---7---7---7---7---7---7---7---7---7---7---7---7---7---|
B -x---x---x---x---x---x---x---x---x---x---x---x---x---x---x---x---|
F#-5---5---5---5---5---5---5---5---5---5---5---5---5---5---5---5---|
B -----------------------------------------------------------------|

===================================================================

Guitar 1
C#-----------------------------------------------------------------|
G#-----------------------------------------------------------------|
E -----------------------------------------------------------------|
B -----------------------------------------------------------------|
F#-5-----------7-----------8-----------7-----------10------8-------|
B -----0---0-------0---0-------0---0-------0---0-------0-------0---|
pm     .   .       .   .       .   .       .   .       .       .

Guitar 2
C#-----------------------------------------------------------------|
G#-----------------------------------------------------------------|
E -9---9---9---9---9---9---9---9---9---9---9---9---9---9---9---9---|
B -x---x---x---x---x---x---x---x---x---x---x---x---x---x---x---x---|
F#-7---7---7---7---7---7---7---7---7---7---7---7---7---7---7---7---|
B -----------------------------------------------------------------|

===================================================================

Guitar 1
C#-----------------------------------------------------------------|
G#-----------------------------------------------------------------|
E -----------------------------------------------------------------|
B -----------------------------------------------------------------|
F#-5-----------7-----------8-----------7-----------10------8-------|
B -----0---0-------0---0-------0---0-------0---0-------0-------0---|
pm     .   .       .   .       .   .       .   .       .       .

Guitar 2
C#-----------------------------------------------------------------|
G#-----------------------------------------------------------------|
E -10--10--10--10--10--10--10--10--10--10--10--10--10--10--10--10--|
B -x---x---x---x---x---x---x---x---x---x---x---x---x---x---x---x---|
F#-8---8---8---8---8---8---8---8---8---8---8---8---8---8---8---8---|
B -----------------------------------------------------------------|

===================================================================

Guitar 1
C#-----------------------------------------------------------------|
G#-----------------------------------------------------------------|
E -----------------------------------------------------------------|
B -----------------------------------------------------------------|
F#-4-----------7-----------5-----------4-----------5-------7-------|
B -----0---0-------0---0-------0---0-------0---0-------0-------0---|
pm     .   .       .   .       .   .       .   .       .       .

Guitar 2
C#-----------------------------------------------------------------|
G#-----------------------------------------------------------------|
E -6---6---6---6---6---6---6---6---6---6---6---6---6---6---6---6---|
B -x---x---x---x---x---x---x---x---x---x---x---x---x---x---x---x---|
F#-4---4---4---4---4---4---4---4---4---4---4---4---4---4---4---4---|
B -----------------------------------------------------------------|

===================================================================
===================================================================


Break Off 2

Guitar 1
C#-----------------------------------------------------------------|
G#-----------------------------------------------------------------|
E -----------------------------------------------------------------|
B -8---8---8---8---8---8---8---8---8---8---8---8---8---8---8---8---|
F#-8---8---8---8---8---8---8---8---8---8---8---8---8---8---8---8---|
B -8---8---8---8---8---8---8---8---8---8---8---8---8---8---8---8---|

Guitar 2
C#-----------------------------------------------------------------|
G#-----------------------------------------------------------------|
E -10--10--10--10--10--10--10--10--10--10--10--10--10--10--10--10--|
B -x---x---x---x---x---x---x---x---x---x---x---x---x---x---x---x---|
F#-8---8---8---8---8---8---8---8---8---8---8---8---8---8---8---8---|
B -----------------------------------------------------------------|

===================================================================

Guitar 1
C#-----------------------------------------------------------------|
G#-----------------------------------------------------------------|
E -----------------------------------------------------------------|
B -10--10--10--10--10--10--10--10--10--10--10--10--10--10--10--10--|
F#-10--10--10--10--10--10--10--10--10--10--10--10--10--10--10--10--|
B -10--10--10--10--10--10--10--10--10--10--10--10--10--10--10--10--|

Guitar 2
C#-----------------------------------------------------------------|
G#-----------------------------------------------------------------|
E -12--12--12--12--12--12--12--12--12--12--12--12--12--12--12--12--|
B -x---x---x---x---x---x---x---x---x---x---x---x---x---x---x---x---|
F#-10--10--10--10--10--10--10--10--10--10--10--10--10--10--10--10--|
B -----------------------------------------------------------------|

===================================================================
===================================================================


Interlude 1

(x4)

Guitar 1
C#-----------------------------------------------------------------|
G#-----------------------------------------------------------------|
E -----------------------------------------------------------------|
B -0~~~~~~~~~~~~~~~~~~~~~~~~~~~~~~~~~~~~~~~~~~~~~~~~~~~~~-8~~~~~~~-
F#-0~~~~~~~~~~~~~~~~~~~~~~~~~~~~~~~~~~~~~~~~~~~~~~~~~~~~~-8~~~~~~~-
B -0~~~~~~~~~~~~~~~~~~~~~~~~~~~~~~~~~~~~~~~~~~~~~~~~~~~~~-8~~~~~~~-

Guitar 2
C#-----------------------------------------------------------------
G#-3~~~~~~~~~~~~~~~~~~~~~~~~~~~~~~~~~~~~~~~~~~~~~~~~~~~~~-1~~~~~~~-
E -----------------0~~~~~~~~~~~~~~~~~~~~~~~~~~~~~~~~~~~~~----------|
B ---------4~~~~~~~~~~~~~~~~~~~~~~~~~~~~~~~~~~~~~~~~~~~~~----------|
F#-----------------------------------------------------------------|
B -----------------------------------------------------------------|

===================================================================
===================================================================


Interlude 2

Guitar 1
C#-----------------------------------------------------------------|
G#-----------------------------------------------------------------|
E -----------------------------------------------------------------|
B -0~~~~~~~~~~~~~~~~~~~~~~~~~~~~~~~~~~~~~~~~~~~~~~~~~~~~~-8~~~~~~~-
F#-0~~~~~~~~~~~~~~~~~~~~~~~~~~~~~~~~~~~~~~~~~~~~~~~~~~~~~-8~~~~~~~-
B -0~~~~~~~~~~~~~~~~~~~~~~~~~~~~~~~~~~~~~~~~~~~~~~~~~~~~~-8~~~~~~~-

Guitar 2
C#-----------------------------------------------------------------
G#-3~~~~~~~~~~~~~~~~~~~~~~~~~~~~~~~~~~~~~~~~~~~~~~~~~~~~~-1~~~~~~~-
E -----------------0~~~~~~~~~~~~~~~~~~~~~~~~~~~~~~~~~~~~~----------|
B ---------4~~~~~~~~~~~~~~~~~~~~~~~~~~~~~~~~~~~~~~~~~~~~~----------|
F#-----------------------------------------------------------------|
B -----------------------------------------------------------------|

===================================================================

Guitar 1
C#-----------------------------------------------------------------|
G#-----------------------------------------------------------------|
E -----------------------------------------------------------------|
B -0~~~~~~~~~~~~~~~~~~~~~~~~~~~~~~~~~~~~~~~~~~~~~~~~~~~~~-8~~~~~~~-
F#-0~~~~~~~~~~~~~~~~~~~~~~~~~~~~~~~~~~~~~~~~~~~~~~~~~~~~~-8~~~~~~~-
B -0~~~~~~~~~~~~~~~~~~~~~~~~~~~~~~~~~~~~~~~~~~~~~~~~~~~~~-8~~~~~~~-

Guitar 2
C#-----------------------------------------------------------------
G#-3~~~~~~~~~~~~~~~~~~~~~~~~~~~~~~~~~~~~~~~~~~~~~~~~~~~~~-1~~~~~~~-
E -----------------0~~~~~~~~~~~~~~~~~~~~~~~~~~~~~~~~~~~~~----------|
B ---------4~~~~~~~~~~~~~~~~~~~~~~~~~~~~~~~~~~~~~~~~~~~~~----------|
F#-----------------------------------------------------------------|
B -----------------------------------------------------------------|

===================================================================

Guitar 1
C#-----------------------------------------------------------------|
G#-----------------------------------------------------------------|
E -----------------------------------------------------------------|
B -0~~~~~~~~~~~~~~~~~~~~~~~~~~~~~~~~~~~~~~~~~~~~~~~~~~~~~-8~~~~~~~-
F#-0~~~~~~~~~~~~~~~~~~~~~~~~~~~~~~~~~~~~~~~~~~~~~~~~~~~~~-8~~~~~~~-
B -0~~~~~~~~~~~~~~~~~~~~~~~~~~~~~~~~~~~~~~~~~~~~~~~~~~~~~-8~~~~~~~-

Guitar 2
C#-----------------------------------------------------------------
G#-3~~~~~~~~~~~~~~~~~~~~~~~~~~~~~~~~~~~~~~~~~~~~~~~~~~~~~-1~~~~~~~-
E -----------------0~~~~~~~~~~~~~~~~~~~~~~~~~~~~~~~~~~~~~----------|
B ---------4~~~~~~~~~~~~~~~~~~~~~~~~~~~~~~~~~~~~~~~~~~~~~----------|
F#-----------------------------------------------------------------|
B -----------------------------------------------------------------|

===================================================================

Guitar 1
C#-----------------------------------------------------------------|
G#-----------------------------------------------------------------|
E -----------------------------------------------------------------|
B -0~~~~~~~~~~~~~~~~~~~~~~~~~~~~~~~~~~~~~~~~~~~~-ps\~~~~~~~~~~~~~~-
F#-0~~~~~~~~~~~~~~~~~~~~~~~~~~~~~~~~~~~~~~~~~~~~-ps\~~~~~~~~~~~~~~-
B -0~~~~~~~~~~~~~~~~~~~~~~~~~~~~~~~~~~~~~~~~~~~~-ps\~~~~~~~~~~~~~~-

Guitar 2
C#-----------------------------------------------------------------|
G#-3~~~~~~~~~~~~~~~~~~~~~~~~~~~~~~~~~~~~~~~~~~~~-------------------|
E -----------------0~~~~~~~~~~~~~~~~~~~~~~~~~~~~-------------------|
B ---------4~~~~~~~~~~~~~~~~~~~~~~~~~~~~~~~~~~~~-ps\~~~~~~~~~~~~~~-|
F#-----------------------------------------------ps\~~~~~~~~~~~~~~-|
B -----------------------------------------------ps\~~~~~~~~~~~~~~-|

===================================================================
===================================================================


Guitar Solo

Guitar 1
C#-----------------------------------------------------------------|
G#-----------------------------------------------------------------|
E -----------------------------------------------------------------|
B -0-0-0---0-0-0---0-0-0---0-0-0---0-0-0---0-0-0---0-0-0---0-0-0---|
F#-0-0-0---0-0-0---0-0-0---0-0-0---0-0-0---0-0-0---0-0-0---0-0-0---|
B -0-0-0---0-0-0---0-0-0---0-0-0---0-0-0---0-0-0---0-0-0---0-0-0---|
pm . . .   . . .   . . .   . . .   . . .   . . .   . . .   . . .

Guitar 2 (Wah effect)
C#-----------------------------------------------------------------|
G#---------------------------------15--------------13--------------|
E ---------14------15------14--------------14--------------12--14--|
B -12--12------12------12------12------12------12------12----------|
F#-----------------------------------------------------------------|
B -----------------------------------------------------------------|
pm .   .       .       .       .       .       .       .

===================================================================

Guitar 1
C#-----------------------------------------------------------------|
G#-----------------------------------------------------------------|
E -----------------------------------------------------------------|
B -0-0-0---0-0-0---0-0-0---0-0-0---0-0-0---0-0-0---6~~~~~~~~~~~~~~-|
F#-0-0-0---0-0-0---0-0-0---0-0-0---0-0-0---0-0-0---6~~~~~~~~~~~~~~-|
B -0-0-0---0-0-0---0-0-0---0-0-0---0-0-0---0-0-0---6~~~~~~~~~~~~~~-|
pm . . .   . . .   . . .   . . .   . . .   . . .

Guitar 2
C#---------------------------------|
G#---------------------------------|
E ---------14------15------14------|
B -12--12------12------12------12--|
F#---------------------------------|
B ---------------------------------|
pm .   .       .       .       .

Guitar 2 continued
C#----------------------------------------------|
G#----------------------------------------------|
E -15-14-12----12-14-15-14-12----12-14-15-14-12-|
B ----------15----------------15----------------|
F#----------------------------------------------|
B ----------------------------------------------|

===================================================================

Guitar 1
C#-----------------------------------------------------------------|
G#-----------------------------------------------------------------|
E -----------------------------------------------------------------|
B -0-0-0---0-0-0---0-0-0---0-0-0---0-0-0---0-0-0---0-0-0---0-0-0---|
F#-0-0-0---0-0-0---0-0-0---0-0-0---0-0-0---0-0-0---0-0-0---0-0-0---|
B -0-0-0---0-0-0---0-0-0---0-0-0---0-0-0---0-0-0---0-0-0---0-0-0---|
pm . . .   . . .   . . .   . . .   . . .   . . .   . . .   . . .

Guitar 2 (Wah effect)
C#---------------------------------------------------------12--13--|
G#---------------------------------15--------------13--------------|
E ---------14------15------14--------------14----------------------|
B -12--12------12------12------12------12------12------12----------|
F#-----------------------------------------------------------------|
B -----------------------------------------------------------------|
pm .   .       .       .       .       .       .       .

===================================================================

Guitar 1
C#-----------------------------------------------------------------|
G#-----------------------------------------------------------------|
E -----------------------------------------------------------------|
B -0-0-0---0-0-0---0-0-0---0-0-0---0-0-0---0-0-0---6~~~~~~~~~~~~~~-|
F#-0-0-0---0-0-0---0-0-0---0-0-0---0-0-0---0-0-0---6~~~~~~~~~~~~~~-|
B -0-0-0---0-0-0---0-0-0---0-0-0---0-0-0---0-0-0---6~~~~~~~~~~~~~~-|
pm . . .   . . .   . . .   . . .   . . .   . . .

Guitar 2
C#---------------------------------|
G#---------------------------------|
E ---------14------15------14------|
B -12--12------12------12------12--|
F#---------------------------------|
B ---------------------------------|
pm .   .       .       .       .

Guitar 2 continued
C#----------------------------------------------|
G#----------------------------------------------|
E -15-14-12----12-14-15-14-12----12-14-15-14-12-|
B ----------15----------------15----------------|
F#----------------------------------------------|
B ----------------------------------------------|

===================================================================

Guitar 1
C#-----------------------------------------------------------------|
G#-----------------------------------------------------------------|
E -----------------------------------------------------------------|
B -5*~~\~~~~~~~~~~/12\~~~~-0-0-0---0-0-0---0-0-0---0-0-0---0-0-0---|
F#----------------/12\~~~~-0-0-0---0-0-0---0-0-0---0-0-0---0-0-0---|
B ----------------/12\~~~~-0-0-0---0-0-0---0-0-0---0-0-0---0-0-0---|
pm . . .   . . .   . . .   . . .   . . .   . . .   . . .   . . .


Guitar 2
C#------------------------------------------------------------------|
G#-12*~\~~~~~~~~~~---------------------------------10~~~~~~~~~~~~~~-|
E -----------------12*~\~~~~~~~~~~---------10--12-------------------|
B ---------------------------------10--12---------------------------|
F#------------------------------------------------------------------|
B ------------------------------------------------------------------|

===================================================================

Guitar 1
C#-----------------------------------------------------------------|
G#-----------------------------------------------------------------|
E -----------------------------------------------------------------|
B -0-0-0---0-0-0---0-0-0---0-0-0---0-0-0---0-0-0---6~~~~~~~~~~~~~~-|
F#-0-0-0---0-0-0---0-0-0---0-0-0---0-0-0---0-0-0---6~~~~~~~~~~~~~~-|
B -0-0-0---0-0-0---0-0-0---0-0-0---0-0-0---0-0-0---6~~~~~~~~~~~~~~-|
pm . . .   . . .   . . .   . . .   . . .   . . .

Guitar 2
C#-------------------------------------------------1/~~~~~~~~~~~~~-|
G#-~~~~~~~~~~~~~~~-------------------------------------------------|
E -----------------15-14-12----12*~~~~~~~~~~~~~~~~-----------------|
B --------------------------15-------------------------------------|
F#-----------------------------------------------------------------|
B -----------------------------------------------------------------|

===================================================================

Guitar 1
C#-----------------------------------------------------------------|
G#-----------------------------------------------------------------|
E -----------------------------------------------------------------|
B -0-0-0---0-0-0---0-0-0---0-0-0---0-0-0---0-0-0---0-0-0---0-0-0---|
F#-0-0-0---0-0-0---0-0-0---0-0-0---0-0-0---0-0-0---0-0-0---0-0-0---|
B -0-0-0---0-0-0---0-0-0---0-0-0---0-0-0---0-0-0---0-0-0---0-0-0---|
pm . . .   . . .   . . .   . . .   . . .   . . .   . . .   . . .

Guitar 2
C#-17-15-17-15-17-15-/15-13-15-13-15-13-/13-10-13-10-13-10-/12-8-12-8-12-8--|
G#--------------------------------------------------------------------------|
E --------------------------------------------------------------------------|
B --------------------------------------------------------------------------|
F#--------------------------------------------------------------------------|
B --------------------------------------------------------------------------|

===================================================================

Guitar 1
C#-----------------------------------------------------------------|
G#-----------------------------------------------------------------|
E -----------------------------------------------------------------|
B -0-0-0---0-0-0---0-0-0---0-0-0---0-0-0---0-0-0---6~~~~~~~~~~~~~~-|
F#-0-0-0---0-0-0---0-0-0---0-0-0---0-0-0---0-0-0---6~~~~~~~~~~~~~~-|
B -0-0-0---0-0-0---0-0-0---0-0-0---0-0-0---0-0-0---6~~~~~~~~~~~~~~-|
pm . . .   . . .   . . .   . . .   . . .   . . .

Guitar 2
C#/10-7-10-7-10-7-/8-5-8-5-8-5--20--19--17----------------------|
G#------------------------------------------20--18--17----------|
E ------------------------------------------------------19--17--|
B --------------------------------------------------------------|
F#--------------------------------------------------------------|
B --------------------------------------------------------------|

===================================================================

Guitar 1
C#-----------------------------------------------------------------|
G#-----------------------------------------------------------------|
E -------------------------------------------------6~~~~~~~~~~~~~~-|
B -0~~~~~~~~~~~~~~-3~~~~~~~~~~~~~~-2~~~~~~~~~~~~~~-6~~~~~~~~~~~~~~-|
F#-0~~~~~~~~~~~~~~-3~~~~~~~~~~~~~~-2~~~~~~~~~~~~~~-4~~~~~~~~~~~~~~-|
B -0~~~~~~~~~~~~~~-3~~~~~~~~~~~~~~-2~~~~~~~~~~~~~~-----------------|

Guitar 2
C#-----------------------------------------------------------------|
G#---------------------------------------------17--18--20--18--20--|
E -19~~~~~~~~~~~~~~~~~~~~~~~~~~~~~~~~~~~~~~~~~---------------------|
B -----------------------------------------------------------------|
F#-----------------------------------------------------------------|
B -----------------------------------------------------------------|

===================================================================

Guitar 1
C#-----------------------------------------------------------------|
G#-----------------------------------------------------------------|
E -------------------------------------------------6~~~~~~~~~~~~~~-|
B -0~~~~~~~~~~~~~~-3~~~~~~~~~~~~~~-2~~~~~~~~~~~~~~-6~~~~~~~~~~~~~~-|
F#-0~~~~~~~~~~~~~~-3~~~~~~~~~~~~~~-2~~~~~~~~~~~~~~-4~~~~~~~~~~~~~~-|
B -0~~~~~~~~~~~~~~-3~~~~~~~~~~~~~~-2~~~~~~~~~~~~~~-----------------|

Guitar 2
C#-16b~~~~~r~~~~~~-16b~~~~~~~~~~~~~~~~~~~~~~~~~~~~-----17--18--20--|
G#-------------------------------------------------20--------------|
E -----------------------------------------------------------------|
B -----------------------------------------------------------------|
F#-----------------------------------------------------------------|
B -----------------------------------------------------------------|

===================================================================
===================================================================


Chorus 2

Guitar 1
C#-----------------------------------------------------------------|
G#-----------------------------------------------------------------|
E -7---7---7---7---7---7---7---7---7---7---7---7---7---7---7---7---|
B -x---x---x---x---x---x---x---x---x---x---x---x---x---x---x---x---|
F#-5---5---5---5---5---5---5---5---5---5---5---5---5---5---5---5---|
B -----------------------------------------------------------------|

Guitar 2
C#-19b~~~~~r~~~~~~-19b~~~~~~~~~~~~~~~~~~~~~~~~~~~~~~~~~~~~~~~~~~~~-|
G#-----------------------------------------------------------------|
E -----------------------------------------------------------------|
B -----------------------------------------------------------------|
F#-----------------------------------------------------------------|
B -----------------------------------------------------------------|

===================================================================

Guitar 1
C#-----------------------------------------------------------------|
G#-----------------------------------------------------------------|
E -9---9---9---9---9---9---9---9---9---9---9---9---9---9---9---9---|
B -x---x---x---x---x---x---x---x---x---x---x---x---x---x---x---x---|
F#-7---7---7---7---7---7---7---7---7---7---7---7---7---7---7---7---|
B -----------------------------------------------------------------|

===================================================================

Guitar 1
C#-----------------------------------------------------------------|
G#-----------------------------------------------------------------|
E -10--10--10--10--10--10--10--10--10--10--10--10--10--10--10--10--|
B -x---x---x---x---x---x---x---x---x---x---x---x---x---x---x---x---|
F#-8---8---8---8---8---8---8---8---8---8---8---8---8---8---8---8---|
B -----------------------------------------------------------------|

===================================================================

Guitar 1
C#-----------------------------------------------------------------|
G#-----------------------------------------------------------------|
E -6---6---6---6---6---6---6---6---6---6---6---6---6---6---6---6---|
B -x---x---x---x---x---x---x---x---x---x---x---x---x---x---x---x---|
F#-4---4---4---4---4---4---4---4---4---4---4---4---4---4---4---4---|
B -----------------------------------------------------------------|

===================================================================

Guitar 1
C#-----------------------------------------------------------------|
G#-----------------------------------------------------------------|
E -----------------------------------------------------------------|
B -----------------------------------------------------------------|
F#-5-----------7-----------8-----------7-----------10------8-------|
B -----0---0-------0---0-------0---0-------0---0-------0-------0---|
pm     .   .       .   .       .   .       .   .       .       .

Guitar 2
C#-----------------------------------------------------------------|
G#-----------------------------------------------------------------|
E -7---7---7---7---7---7---7---7---7---7---7---7---7---7---7---7---|
B -x---x---x---x---x---x---x---x---x---x---x---x---x---x---x---x---|
F#-5---5---5---5---5---5---5---5---5---5---5---5---5---5---5---5---|
B -----------------------------------------------------------------|

===================================================================

Guitar 1
C#-----------------------------------------------------------------|
G#-----------------------------------------------------------------|
E -----------------------------------------------------------------|
B -----------------------------------------------------------------|
F#-5-----------7-----------8-----------7-----------10------8-------|
B -----0---0-------0---0-------0---0-------0---0-------0-------0---|
pm     .   .       .   .       .   .       .   .       .       .

Guitar 2
C#-----------------------------------------------------------------|
G#-----------------------------------------------------------------|
E -9---9---9---9---9---9---9---9---9---9---9---9---9---9---9---9---|
B -x---x---x---x---x---x---x---x---x---x---x---x---x---x---x---x---|
F#-7---7---7---7---7---7---7---7---7---7---7---7---7---7---7---7---|
B -----------------------------------------------------------------|

===================================================================

Guitar 1
C#-----------------------------------------------------------------|
G#-----------------------------------------------------------------|
E -----------------------------------------------------------------|
B -----------------------------------------------------------------|
F#-5-----------7-----------8-----------7-----------10------8-------|
B -----0---0-------0---0-------0---0-------0---0-------0-------0---|
pm     .   .       .   .       .   .       .   .       .       .

Guitar 2
C#-----------------------------------------------------------------|
G#-----------------------------------------------------------------|
E -10--10--10--10--10--10--10--10--10--10--10--10--10--10--10--10--|
B -x---x---x---x---x---x---x---x---x---x---x---x---x---x---x---x---|
F#-8---8---8---8---8---8---8---8---8---8---8---8---8---8---8---8---|
B -----------------------------------------------------------------|

===================================================================

Guitar 1
C#-----------------------------------------------------------------|
G#-----------------------------------------------------------------|
E -----------------------------------------------------------------|
B -----------------------------------------------------------------|
F#-4-----------7-----------5-----------4-----------5-------7-------|
B -----0---0-------0---0-------0---0-------0---0-------0-------0---|
pm     .   .       .   .       .   .       .   .       .       .

Guitar 2
C#-----------------------------------------------------------------|
G#-----------------------------------------------------------------|
E -6---6---6---6---6---6---6---6---6---6---6---6---6---6---6---6---|
B -x---x---x---x---x---x---x---x---x---x---x---x---x---x---x---x---|
F#-4---4---4---4---4---4---4---4---4---4---4---4---4---4---4---4---|
B -----------------------------------------------------------------|

===================================================================
===================================================================


Bridge 1

Guitar 1
C#-----------------------------------------------------------------|
G#-----------------------------------------------------------------|
E -----------------------------------------------------------------|
B -0-0-0---0-0-0---0-0-0---0-0-0---0-0-0---0-0-0---0-0-0---0-0-0---|
F#-0-0-0---0-0-0---0-0-0---0-0-0---0-0-0---0-0-0---0-0-0---0-0-0---|
B -0-0-0---0-0-0---0-0-0---0-0-0---0-0-0---0-0-0---0-0-0---0-0-0---|
pm . . .   . . .   . . .   . . .   . . .   . . .   . . .   . . .

Guitar 2
C#-------------------------------------------------------------------|
G#-------------------------------------------------------------------|
E -------------------------------------------------------------------|
B -0-0-0---0-0-0-----------------------------------------------------|
F#-0-0-0---0-0-0---5-5-5-5-4-4-5-5-6-6-6-6-5-5-6-6-10-10-6-6-9-9-5-5-|
B -0-0-0---0-0-0-----------------------------------------------------|
pm . . .   . . .

===================================================================

Guitar 1
C#-----------------------------------------------------------------|
G#-----------------------------------------------------------------|
E -----------------------------------------------------------------|
B -0-0-0---0-0-0---0-0-0---0-0-0---0-0-0---0-0-0---0-0-0---0-0-0---|
F#-0-0-0---0-0-0---0-0-0---0-0-0---0-0-0---0-0-0---0-0-0---0-0-0---|
B -0-0-0---0-0-0---0-0-0---0-0-0---0-0-0---0-0-0---0-0-0---0-0-0---|
pm . . .   . . .   . . .   . . .   . . .   . . .   . . .   . . .

Guitar 2
C#-------------------------------------------------------------------|
G#-------------------------------------------------------------------|
E -------------------------------------------------------------------|
B -------------------------------------------------------------------|
F#-5-5-5-5-5-5-5-5-5-5-5-5-4-4-5-5-6-6-6-6-5-5-6-6-10-10-6-6-9-9-9-9-|
B -------------------------------------------------------------------|

===================================================================

Guitar 1
C#-----------------------------------------------------------------|
G#-----------------------------------------------------------------|
E -----------------------------------------------------------------|
B -0-0-0---0-0-0---0-0-0---0-0-0---0-0-0---0-0-0---0-0-0---0-0-0---|
F#-0-0-0---0-0-0---0-0-0---0-0-0---0-0-0---0-0-0---0-0-0---0-0-0---|
B -0-0-0---0-0-0---0-0-0---0-0-0---0-0-0---0-0-0---0-0-0---0-0-0---|
pm . . .   . . .   . . .   . . .   . . .   . . .   . . .   . . .

Guitar 2
C#-------------------------------------------------------------------|
G#-------------------------------------------------------------------|
E -------------------------------------------------------------------|
B -------------------------------------------------------------------|
F#-9-9-9-9-9-9-9-9-5-5-5-5-4-4-5-5-6-6-6-6-5-5-6-6-10-10-6-6-9-9-5-5-|
B -------------------------------------------------------------------|

===================================================================

Guitar 1
C#-----------------------------------------------------------------|
G#-----------------------------------------------------------------|
E -----------------------------------------------------------------|
B -0-0-0---0-0-0---0-0-0---0-0-0---0-0-0---0-0-0---0-0-0---0-0-0---|
F#-0-0-0---0-0-0---0-0-0---0-0-0---0-0-0---0-0-0---0-0-0---0-0-0---|
B -0-0-0---0-0-0---0-0-0---0-0-0---0-0-0---0-0-0---0-0-0---0-0-0---|
pm . . .   . . .   . . .   . . .   . . .   . . .   . . .   . . .

Guitar 2
C#-------------------------------------------------------------------|
G#-------------------------------------------------------------------|
E -------------------------------------------------------------------|
B -------------------------------------------------------------------|
F#-5-5-5-5-5-5-5-5-5-5-5-5-4-4-5-5-6-6-6-6-5-5-6-6-10-10-6-6-9-9-9-9-|
B -------------------------------------------------------------------|

===================================================================
===================================================================


Bridge 2

Verse

(x2)

Guitar 1
C#---------------------------------------------------------------------|
G#---------------------------------------------------------------------|
E ---------------------------------------------------------------------|
B -0-0-0---0-0-0---7-7-7-7-6-6-7-7-8-8-8-8-7-7-8-8-12-12-8-8-10-10-7-7-|
F#-0-0-0---0-0-0-------------------------------------------------------|
B -0-0-0---0-0-0-------------------------------------------------------|
pm . . .   . . .

Guitar 2
C#-------------------------------------------------------------------|
G#-------------------------------------------------------------------|
E -------------------------------------------------------------------|
B -0-0-0---0-0-0-----------------------------------------------------|
F#-0-0-0---0-0-0---5-5-5-5-4-4-5-5-6-6-6-6-5-5-6-6-10-10-6-6-9-9-5-5-|
B -0-0-0---0-0-0-----------------------------------------------------|
pm . . .   . . .

===================================================================

Guitar 1
C#-----------------------------------------------------------------------|
G#-----------------------------------------------------------------------|
E -----------------------------------------------------------------------|
B -7-7-7-7-7-7-7-7-7-7-7-7-6-6-7-7-8-8-8-8-7-7-8-8-12-12-8-8-11-11-11-11-|
F#-----------------------------------------------------------------------|
B -----------------------------------------------------------------------|

Guitar 2
C#-------------------------------------------------------------------|
G#-------------------------------------------------------------------|
E -------------------------------------------------------------------|
B -------------------------------------------------------------------|
F#-5-5-5-5-5-5-5-5-5-5-5-5-4-4-5-5-6-6-6-6-5-5-6-6-10-10-6-6-9-9-9-9-|
B -------------------------------------------------------------------|

===================================================================

Guitar 1
C#---------------------------------------------------------------------|
G#---------------------------------------------------------------------|
E ---------------------------------------------------------------------|
B -0-0-0---0-0-0---7-7-7-7-6-6-7-7-8-8-8-8-7-7-8-8-12-12-8-8-10-10-7-7-|
F#-0-0-0---0-0-0-------------------------------------------------------|
B -0-0-0---0-0-0-------------------------------------------------------|
pm . . .   . . .

Guitar 2
C#-------------------------------------------------------------------|
G#-------------------------------------------------------------------|
E -------------------------------------------------------------------|
B -0-0-0---0-0-0-----------------------------------------------------|
F#-0-0-0---0-0-0---5-5-5-5-4-4-5-5-6-6-6-6-5-5-6-6-10-10-6-6-9-9-5-5-|
B -0-0-0---0-0-0-----------------------------------------------------|
pm . . .   . . .

===================================================================

Guitar 1
C#-----------------------------------------------------------------------|
G#-----------------------------------------------------------------------|
E -----------------------------------------------------------------------|
B -7-7-7-7-7-7-7-7-7-7-7-7-6-6-7-7-8-8-8-8-7-7-8-8-12-12-8-8-11-11-11-11-|
F#-----------------------------------------------------------------------|
B -----------------------------------------------------------------------|

Guitar 2
C#-------------------------------------------------------------------|
G#-------------------------------------------------------------------|
E -------------------------------------------------------------------|
B -0-0-0---0-0-0-----------------------------------------------------|
F#-0-0-0---0-0-0---5-5-5-5-4-4-5-5-6-6-6-6-5-5-6-6-10-10-6-6-9-9-9-9-|
B -0-0-0---0-0-0-----------------------------------------------------|
pm . . .   . . .

===================================================================
===================================================================


Outro

Guitar 1 & 2
C#-----------------------------------------------------------------|
G#-----------------------------------------------------------------|
E -----------------------------------------------------------------|
B -0-0-0---0-0-0---0-0-0---0-0-0---0-0-0---0-0-0---0-0-0---0-------|
F#-0-0-0---0-0-0---0-0-0---0-0-0---0-0-0---0-0-0---0-0-0---0-------|
B -0-0-0---0-0-0---0-0-0---0-0-0---0-0-0---0-0-0---0-0-0---0-------|
pm . . .   . . .   . . .   . . .   . . .   . . .   . . .   .

===================================================================
===================================================================
===================================================================


Tab Legend
h  -  hammer-on
p  -  pull-off
/  -  slide up
\  -  slide down
ps/-  pickslide up
ps\-  pickslide down
~  -  let ring
pm.-  palm mute
b  -  bend
r  -  return from bend
*  -  harmonic
x  -  dead note
^  -  Whammy bar
^\ -  Whammy bar (hold down)

That is it! I hope this tab has helped you master this song and if you’ve got any 
problems, be sure to check out my cover. Thanks, oh and one last thing... ROCK OUT!!!!
comments
print report bad tab
5 comments total. Showing first comments.
0 reply
Mahtari wrote on June 10 2012, 07:20 pm

C#-----------------------------------------------------------------|
G#-----------------------------------------------------------------|
E -----------------------------------------------------------------|
B -----------------------------------------------------------------|
F#-8-----------7-----------8-----------7-----------10------7-------|
B -----0---0-------0---0-------0---0-------0---0-------0-------0---|

0 reply
Mahtari wrote on June 10 2012, 07:23 pm

Pretty sure that's the first part of the chorus. Last line goes like:

C#-----------------------------------------------------------------|
G#-----------------------------------------------------------------|
E -----------------------------------------------------------------|
B -----------------------------------------------------------------|
F#-8-----------7-----------5-----------4-----------5------7-------|
B -----0---0-------0---0-------0---0-------0---0-------0-------0---|


Also, the guitar parts on the chorus need to be switched. Jeremiah plays this part, I believe.

0 reply
christguitarman wrote on June 13 2012, 03:42 pm

hey dude im the guy who posted version 2 of this song...yea ik its bad but i was wondering if we could work together on a song "Herod's Demise" by In the Midst of Lions i really wanna no how to play it but need help tabbing it and i figured id ask u since u did this song pretty well thanx

I want to post or [tab]
guest
You may want to rate the tab now too:
select rating
Please do not post tabs as comments. Select "correction" instead!