Oops, an error
Loading. Please wait.

Passionate Gloom Tab

1,480 views 1 this week
no commentswrite comment
1 2 3 4 5
please rate
Autoscroll
+/-
esc
set tempo
stop
Contributor
Difficulty
novice
WARNING: You are trying to view
                                    content from Ultimate-Guitar.com
                                    in an unauthorized application,
                                    which is prohibited.

                                    Please use an official Ultimate
                                    Guitar Tabs application for iPhone,
                                    iPad or Android to access legitimate
                                    chords, guitar, bass, and drum tabs
                                    from Ultimate-Guitar.com database.

                                    Type "ultimate guitar tabs" in Apple
                                    App Store's or Android Market's
                                    search to find the application.
NOTE I COPY THIS TABS FROM THIS WEBSITE : 
http://grahamchoo.blogspot.com/2007/09/requested-tabs.html

THIS IS NOT MINE SINCE I SEEN PEOPLE WHO CANNOT FIND I MIGHT AS WELL SHARE IT HERE 
PLEASE GIVE THE ORIGINAL AUTHOR CREDIT

----------------------------------------------------------------- 
PASSIONATE GLOOM – Depapepe 
----------------------------------------------------------------- 
Tabbed by: Graham Choo Email: da_tweens@yahoo.co.uk 
Tuning: Standard 
Intro 1: 
Cm Bb A7 D7 
e|-3---1---0---5-----------------------------------------------------------| 
B|-4---3---2---7-----------------------------------------------------------| 
G|-3---2---0---5-----------------------------------------------------------| 
D|-5---3---2---7-----------------------------------------------------------| 
A|-3---1---0---5-----------------------------------------------------------| 
E|-------------------------------------------------------------------------| 
OR 
e|-5h6---6/8-6-5h6p5-------------------5-----------------------------------| 
B|-----4-------------6-------------5-8---3h4h3---6-4-3\2/3-----------------| 
G|-------------------------2-3-3/6-------------5---------------------------| 
D|---------------------4-5-------------------------------------------------| 
A|-------------------------------------------------------------------------| 
E|-------------------------------------------------------------------------| 
Intro 2: 
Gm 
e|-------------------------------------------------------------------------| 
B|-------------------------------------------------------------------------| 
G|-----3---------3---------3---------3-------------------------------------| 
D|---5---5-----4---4-----3---3-----4---4-----------------------------------| 
A|---------3---------3---------3---------3---------------------------------| 
E|-3---------3---------3---------3-----------------------------------------| 
Gm 
e|-------------------------------------------------------------------------| 
B|-------------------------------------------------------------------------| 
G|-----3---------3---------3---------3-------------------------------------| 
D|---5---5-----4---4-----3---3-----4---4-----------------------------------| 
A|---------3---------3---------3---------3---------------------------------| 
E|-3---------3---------3---------3-----------------------------------------| 
OR 
e|---------------------x---------------------------x-----------------------| 
B|-x---x-------------x-----x---x---x-------------x-----x---x---x-----------| 
G|-x---x-----------x-------x---x---x-----------x-------x---x---x-----------| 
D|-x---x---------x---------x---x---x---------x---------x---x---x-----------| 
A|-------------x---------------------------x-------------------------------| 
E|---------x-x-------------------------x-x---------------------------------| 

e|-------------x---------------------------x-------------------------------| 
B|-----------x-----x---x---x-------------x-----x---x---x-------------------| 
G|---------x-------x---x---x-----------x-------x---x---x-------------------| 
D|-------x---------x---x---x---------x---------x---x---x-------------------| 
A|-----x---------------------------x---------------------------------------| 
E|-x-x-------------------------x-x-----------------------------------------| 
Intro 3: 
Gm 
e|-------------------------------------------------------------------------| 
B|-------------------------------------------------------------------------| 
G|-----3---------3---------3---------3-------------------------------------| 
D|---5---5-----4---4-----3---3-----4---4-----------------------------------| 
A|---------3---------3---------3---------3---------------------------------| 
E|-3---------3---------3---------3-----------------------------------------| 
Gm 
e|-------------------------------------------------------------------------| 
B|-------------------------------------------------------------------------| 
G|-----3---------3---------3-----3-----------------------------------------| 
D|---5---5-----4---4-----3---3---4-----------------------------------------| 
A|---------3---------3---------3-------------------------------------------| 
E|-3---------3---------3---------3-----------------------------------------| 
OR 
Gm Gm/F# Gm Gm/F# Gm Gm/F# Gm Gm/F# 
e|-------------------------------------------------------------------------| 
B|------11--------11--------11--------11-----------------------------------| 
G|-12---11---12---11---12---11---12---11-----------------------------------| 
D|-12---12---12---12---12---12---12---12-----------------------------------| 
A|-13---13---13---13---13---13---13---13-----------------------------------| 
E|-------------------------------------------------------------------------| 
Verse 1: 
Gm Gm Gm Gm 
e|-------------------------------------------------------------------------| 
B|-3---3---3---3---3---3---3---3---3---3---3---3---3---3---3---3-----------| 
G|-3---3---3---3---3---3---3---3---3---3---3---3---3---3---3---3-----------| 
D|-5---4---3---4---5---4---3---4---5---4---3---4---5---4---3---4-----------| 
A|-5---5---5---5---5---5---5---5---5---5---5---5---5---5---5---5-----------| 
E|-3---3---3---3---3---3---3---3---3---3---3---3---3---3---3---3-----------| 
OR 
e|-------------------------------------------------------------------------| 
B|---------------2h3-2h3-2h3-6-6-6-6-6-4-4-3-3h4---------------------------| 
G|---------2-3-5---------------------------------3/5-3-5~------------------| 
D|-4---4-5-----------------------------------------------------------------| 
A|---5---------------------------------------------------------------------| 
E|-------------------------------------------------------------------------| 

e|-------------------------------------------------------------------------| 
B|-------------------------------------------------------------------------| 
G|-----3-5-6-5-3---6-5-3-----3-5-6-5-3---3---------------------------------| 
D|-3/5-----------5-------3/5-----------5-----------------------------------| 
A|-------------------------------------------------------------------------| 
E|-------------------------------------------------------------------------| 

e|-------------------------------------------------------------------------| 
B|---------------2h3-2h3-2h3-6-6-6-6-6-4-4-3-3h4---------------------------| 
G|---------2-3-5---------------------------------3/5-3-5~------------------| 
D|-4---4-5-----------------------------------------------------------------| 
A|---5---------------------------------------------------------------------| 
E|-------------------------------------------------------------------------| 

e|-------------------------------------------------------------------------| 
B|-------------------------------------------------------------------------| 
G|-----3-5-6-5-3---6-5-3-----3-5-6-5-3---3---------------------------------| 
D|-3/5-----------5-------3/5-----------5-----------------------------------| 
A|-------------------------------------------------------------------------| 
E|-------------------------------------------------------------------------| 
Chorus 1: 
Cm F Bb Gm Cm A7 D Cm F Bb Gm Cm F 
e|-3---1---1---3---3---3---2---3---1---1---3---3---1-----------------------| 
B|-4---1---3---3---4---2---3---4---1---3---3---4---1-----------------------| 
G|-3---2---2---3---3---0---2---3---2---2---3---3---2-----------------------| 
D|-5---3---3---5---5---2---0---5---3---3---5---5---3-----------------------| 
A|-3---3---1---5---3---0-------3---3---1---5---3---3-----------------------| 
E|-----1-------3-------------------1-------3-------1-----------------------| 
OR 
e|---3-2-3-2-3h5-5/6----8-8-8-6-6-5-5h6------------------------------------| 
B|-3-----------------4~-----------------6~---------------------------------| 
G|-------------------------------------------------------------------------| 
D|-------------------------------------------------------------------------| 
A|-------------------------------------------------------------------------| 
E|-------------------------------------------------------------------------| 

e|-------------------------------------------------------------------------| 
B|-6-6\4-4-3h4-------------------3-4p3-4p3-4p3-----------------------------| 
G|-7-7\5-5-----3/5-3-2---0-2-3-5-------------------------------------------| 
D|---------------------4---------------------------------------------------| 
A|-------------------------------------------------------------------------| 
E|-------------------------------------------------------------------------| 

e|---3-2-3-2-3h5-5/6----8-8-8-6-6-5-5h6------------------------------------| 
B|-3-----------------4~-----------------6~---------------------------------| 
G|-------------------------------------------------------------------------| 
D|-------------------------------------------------------------------------| 
A|-------------------------------------------------------------------------| 
E|-------------------------------------------------------------------------| 

e|-------------------------------------------------------------------------| 
B|-6-6\4-4-3h4---------3-2-------------------------------------------------| 
G|-7-7\5-5-----3/5-3-2-----5-3-2-------------------------------------------| 
D|-------------------------------5-4-5~------------------------------------| 
A|-------------------------------------------------------------------------| 
E|-------------------------------------------------------------------------| 
Intro 3 
Verse 2: 
Cm F Bb Gm Cm F Bb Bb/B Cm F Bb Gm Cm F Bb Bb/B 
e|-3---1---1---3---3---1---1---1---3---1---1---3---3---1---1---1-----------| 
B|-4---1---3---3---4---1---3---3---4---1---3---3---4---1---3---3-----------| 
G|-3---2---2---3---3---2---2---1---3---2---2---3---3---2---2---1-----------| 
D|-5---3---3---5---5---3---3---3---5---3---3---5---5---3---3---3-----------| 
A|-3---3---1---5---3---3---1---2---3---3---1---5---3---3---1---2-----------| 
E|-----1-------3-------1---------------1-------3-------1-------------------| 
Cm F Bb Gm Cm F Bb Bb/B Cm F Bb Gm Cm F 
e|-3---1---1---3---3---1---1---1---3---1---1---3---3---1-------------------| 
B|-4---1---3---3---4---1---3---3---4---1---3---3---4---1-------------------| 
G|-3---2---2---3---3---2---2---1---3---2---2---3---3---2-------------------| 
D|-5---3---3---5---5---3---3---3---5---3---3---5---5---3-------------------| 
A|-3---3---1---5---3---3---1---2---3---3---1---5---3---3-------------------| 
E|-----1-------3-------1---------------1-------3-------1-------------------| 
OR 
e|-------------------------------------------------------------------------| 
B|-----------3-4-4/6-6-6-6\4-4-4-3-3h4p3-----------------------------------| 
G|-----2-3-5-----------------------------5-3---------2-3-3/5-3-2-3-3-3-----| 
D|-4-5---------------------------------------3---3-5-----------------------| 
A|---------------------------------------------5---------------------------| 
E|-------------------------------------------------------------------------| 

e|-------------------------------------------------1-3-5-------------------| 
B|-------------------------------------------1-3-4-------------------------| 
G|-3/5-5-5-5\3-3-3-2---------------------2-3-------------------------------| 
D|-------------------3-1-1-1-1-0-0-0-1-3-----------------------------------| 
A|-------------------------------------------------------------------------| 
E|-------------------------------------------------------------------------| 

e|-5/6-5---6-5---6-5---6-5---6-5---6/8-6-8/10-8-10/11-10-11-13-13-13-11-10-| 
B|-------6-----6-----6-----6-----6-----------------------------------------| 
G|-------------------------------------------------------------------------| 
D|-------------------------------------------------------------------------| 
A|-------------------------------------------------------------------------| 
E|-------------------------------------------------------------------------| 

e|-8-6-5-------------------------------------------------------------------| 
B|-------6---6/8-6-------------------3-4-5-6-2/3-2/3-----------------------| 
G|---------7-------6p5p3-3h5p3---3-5---------------------------------------| 
D|-----------------------------5-------------------------------------------| 
A|-------------------------------------------------------------------------| 
E|-------------------------------------------------------------------------| 

e|-------------------------------------------8-6~--------------------------| 
B|-----------------------------------6-6/8-6-------------------------------| 
G|-----------3---5---6---5---3---5/7---------------------------------------| 
D|-------3-5---5---5---5---5---5-------------------------------------------| 
A|-3-5-6-------------------------------------------------------------------| 
E|-------------------------------------------------------------------------| 

e|-13-11p10-11-10-----------13~--------13~-------13-------13---------------| 
B|-x--------------11~-10-11-----10-11------10-11----10-11----10-11---------| 
G|-x-----------------------------------------------------------------------| 
D|-------------------------------------------------------------------------| 
A|-------------------------------------------------------------------------| 
E|-------------------------------------------------------------------------| 

e|-13--15--17--18--17--18\-18--20—-18--17--18--18--18--18--18--17----------| 
B|-10x-12x-14x-15x-14x-15x-15x-17x-15x-14x-15x-15x-15x-15x-15x-14x---------| 
G|-10--12--14--15--14--15\-15--17--15--14--15--15--15--15--15--14----------| 
D|-------------------------------------------------------------------------| 
A|-------------------------------------------------------------------------| 
E|-------------------------------------------------------------------------| 
Chorus 2: 
Cm F Bb Gm Cm A7 D E 
e|---6-5-6-5-6-8-3---1---1---3---3---3---2---4-----------------------------| 
B|-8-------------4---1---3---3---4---2---3---3-----------------------------| 
G|---------------3---2---2---3---3---0---2---4-----------------------------| 
D|---------------5---3---3---5---5---2---0---2-----------------------------| 
A|---------------3---3---1---5---3---0-------2-----------------------------| 
E|-------------------1-------3---------------0-----------------------------| 
Dm G C Am Dm B7 E Dm G C Am Dm B7 E 
e|-5---3---3---5---5---2---4---5---3---3---5---5---2---4-------------------| 
B|-6---3---5---5---6---4---3---6---3---5---5---6---4---3-------------------| 
G|-5---4---4---5---5---2---4---5---4---4---5---5---2---4-------------------| 
D|-7---5---5---7---7---4---2---7---5---5---7---7---4---2-------------------| 
A|-5---5---3---7---5---2---2---5---5---3---7---5---2---2-------------------| 
E|-----3-------5-----------0-------3-------5-----------0-------------------| 
OR 
e|---3-2-3-2-3-5----8-8-8-6-6-5-5h6----------------------------------------| 
B|-3-------------4~-----------------6~-------------------------------------| 
G|-------------------------------------------------------------------------| 
D|-------------------------------------------------------------------------| 
A|-------------------------------------------------------------------------| 
E|-------------------------------------------------------------------------| 

e|-------------------------------------------------------------------------| 
B|-6-6\4-4-3h4-------------------3-4p3-4p3-4p3-----------------------------| 
G|-7-7\5-5-----3/5-3-2---0-2-3-5-------------------------------------------| 
D|---------------------4---------------------------------------------------| 
A|-------------------------------------------------------------------------| 
E|-------------------------------------------------------------------------| 

e|---5-4-5-4-5h7-7/8----10-10-10-8-8-7-7h8---------------------------------| 
B|-5-----------------6~--------------------8~------------------------------| 
G|-------------------------------------------------------------------------| 
D|-------------------------------------------------------------------------| 
A|-------------------------------------------------------------------------| 
E|-------------------------------------------------------------------------| 

e|-------------------------------------------------------------------------| 
B|-8-8\6-6-5h6-------------------5-6p5-6p5-6p5-----------------------------| 
G|-9-9\7-7-----5/7-5-4-----4-5-7-------------------------------------------| 
D|---------------------6-7-------------------------------------------------| 
A|-------------------------------------------------------------------------| 
E|-------------------------------------------------------------------------| 

e|---5-4-5-4-5h7-7/8----10-10-10-8-8-7-7h8---------------------------------| 
B|-5-----------------6~--------------------8~------------------------------| 
G|-------------------------------------------------------------------------| 
D|-------------------------------------------------------------------------| 
A|-------------------------------------------------------------------------| 
E|-------------------------------------------------------------------------| 

e|---------------------------------------------------7-10~-----------------| 
B|-8-8\6-6-5h6-------------------5-6p5-6p5-6p5-----6-----------------------| 
G|-9-9\7-7-----5/7-5-4-----4-5-7---------------5/7-------------------------| 
D|---------------------6-7-------------------------------------------------| 
A|-------------------------------------------------------------------------| 
E|-------------------------------------------------------------------------| 
Intro 2 
Gm 
e|-------------------------------------------------------------------------| 
B|-------------------------------------------------------------------------| 
G|-----3---------3---------3---------3-------------------------------------| 
D|---5---5-----4---4-----3---3-----4---4-----------------------------------| 
A|---------3---------3---------3---------3---------------------------------| 
E|-3---------3---------3---------3-----------------------------------------| 
Gm 
e|---------------------6p5-------------------------------------------------| 
B|-------------------------8-6-----8---------------------------------------| 
G|-----3---------3-------------8-7-----------------------------------------| 
D|---5---5-----4---4-------------------------------------------------------| 
A|---------3---------3-----------------------------------------------------| 
E|-3---------3-------------------------------------------------------------| 
OR 
e|-------------x---------------------------x-------------------------------| 
B|-----------x-----x---x---x-------------x-----x---x---x-------------------| 
G|---------x-------x---x---x-----------x-------x---x---x-------------------| 
D|-------x---------x---x---x---------x---------x---x---x-------------------| 
A|-----x---------------------------x---------------------------------------| 
E|-x-x-------------------------x-x-----------------------------------------| 

e|-------------x---------------------------x-------------------------------| 
B|-----------x-----x---x---x-------------x-----x---x---x-------------------| 
G|---------x-------x---x---x-----------x-------x---x---x-------------------| 
D|-------x---------x---x---x---------x---------x---x---x-------------------| 
A|-----x---------------------------x---------------------------------------| 
E|-x-x-------------------------x-x-----------------------------------------| 

e|-------------x---------------------------x-------------10p8--------------| 
B|-----------x-----x---x---x-------------x-----x---x---x------11-10-8----8-| 
G|---------x-------x---x---x-----------x-------x---x---x--------------10---| 
D|-------x---------x---x---x---------x---------x---x---x-------------------| 
A|-----x---------------------------x---------------------------------------| 
E|-x-x-------------------------x-x-----------------------------------------| 
| / slide up 
| \ slide down 
| h hammer-on 
| p pull-off 
| ~ vibrato 
| + harmonic 
| x Mute note
comments
We did not receive enough feedback on this tab! Please rate:
print report bad tab
1 2 3 4 5
I want to post or [tab]
guest
You may want to rate the tab now too:
select rating
Please do not post tabs as comments. Select "correction" instead!