Oops, an error
Loading. Please wait.

Sky Sky Sky Tab

ver1
ver1

Intro

Whole song

More versions @911Tabs.com
23,327 views 108 this week
no commentswrite comment
1 2 3 4 5
worth learning
x 2
add to favorites launch autoscroll
font size
0
reset
Autoscroll
+/-
esc
set tempo
stop
Contributor
WARNING: You are trying to view
                                    content from Ultimate-Guitar.com
                                    in an unauthorized application,
                                    which is prohibited.

                                    Please use an official Ultimate
                                    Guitar Tabs application for iPhone,
                                    iPad or Android to access legitimate
                                    chords, guitar, bass, and drum tabs
                                    from Ultimate-Guitar.com database.

                                    Type "ultimate guitar tabs" in Apple
                                    App Store's or Android Market's
                                    search to find the application.
Depapepe  : Sky! Sky! Sky! (‘07 Version)
Tabbed by : Hariz Abdul Hadi (twitter.com/CubaTryTest)
Tuning    : Standard (EADGBE)

!----------------------------------------------!
| READ ME FIRST                                |
!----------------------------------------------!
| This tab is according to their 2007 Album    |
| and is more to Yoshinari Takuoka’s part. I   |
| did tab Takuya Miura’s part but only the     |
| basic chords and some leading parts toward   |
| the end are missing.                         |
|                                              |
| Here’s the link to the original song:        |
| http://www.youtube.com/watch?v=0XsXEDZejo0   |
!----------------------------------------------!
| Legend:                                      |
| ^ Bend upwards                               |
| / Slide down                                 |
| * Strum Chords/let ring                      |
| x Play/repeat several times                  |
!----------------------------------------------!

[INTRO]

Takuya Miura (Guitar 1)   
e|----------^14-12----12-|
B|-10/12-14--------14----|
G|-----------------------|
D|-----------------------|
A|-----------------------|
E|-----------------------|

Yoshinari Takuoka (Guitar 2)
e|-----------------------|
B|-----------------------|
G|--------^11-9----9-----|
D|-8/9-11-------11-------|
A|-----------------------|
E|-----------------------|

(Guitar 1)
e|-12-12-11/12-12-12-x6-|
B|-12-12-11/12-12-12----|
G|----------------------|
D|----------------------|
A|----------------------|
E|----------------------|

(Guitar 2)
e|----------------------|
B|-0*---0*---0*---0*-x3-|
G|-1----3----4----6-----|
D|-2----4----5----7-----|
A|-2----4----5----7-----|
E|-0--------------------|
   Emaj F#11 Em7  Add9

(Guitar 2)
e|-8888-10101010------|
B|---------------0000-|
G|-5555--7-7-7-7-2222-|
D|---------------1111-|
A|---------------2222-|
E|--------------------|

e|-0000-2222------|
B|-1111-3333-0000-|
G|-0000-2222-2222-|
D|-2222-0000-1111-|
A|-3333------2222-|
E|----------------|
   C    D    B7 
 
[CHORUS]

(Guitar 1: Strum)
e|-7-7-77-7-7-7-77-7--4-4-44-4-4-4-44-4-|
B|-9-9-99-9-9-9-99-9--5-5-55-5-5-5-55-5-|
G|-8-8-88-8-8-8-88-8--6-6-66-6-6-6-66-6-|
D|-9-9-99-9-9-9-99-9--6-6-66-6-6-6-66-6-|
A|-7---77---7---77----4---44---4---44---|
E|---7----7---7----7----4----4---4----4-|
   Emaj7              C#m 

e|--------------------2-2-22-2----------|
B|-5-5-55-5-5-5-55-5--2-2-22-2----------|
G|-6-6-66-6-6-6-66-6--2-2-22-2-2-2-2--2-|
D|-7-7-77-7-7-7-77-7--4-4-44-4-1-1-11-1-|
A|-7-7-77-7-7-7-77-7--4-4-44-4-2-2-22-2-|
E|--------------------2-2-22-2----------|
   A                  F#m      B7 

(Guitar 2)
e|------------------14-12-11-1212-1212-12/14-12-11-1212-12121212-|
B|-9-10-11-12121212----------------------------------------------|
G|------------------11--9--8--9-9--9-9--9/11--9--8--9-9--9-9-9-9-|
D|-6--7--8--9-9-9-9----------------------------------------------|
A|---------------------------------------------------------------|
E|---------------------------------------------------------------|

e|-5-7-9-11-7-9-11-12-9-11-12-14-16-14-|
B|-------------------------------------|
G|-2-4-6--8-4-6--8--9-6--8--9-11-13-11-|
D|-------------------------------------|
A|-------------------------------------|
E|-------------------------------------|

2nd time:

(Guitar 1: Strum)
e|-7-7-77-7-7-7-77-7--4-4-44-4-4-4-44-4-|
B|-9-9-99-9-9-9-99-9--5-5-55-5-5-5-55-5-|
G|-8-8-88-8-8-8-88-8--6-6-66-6-6-6-66-6-|
D|-9-9-99-9-9-9-99-9--6-6-66-6-6-6-66-6-|
A|-7---77---7---77----4---44---4---44---|
E|---7----7---7----7----4----4---4----4-|
   Emaj7              C#m 

e|-5555----------------5-7-|
B|-5555----------------5-7-|
G|-6666----------------6-8-|
D|-7777-6666-4444-6666-7-9-|
A|-7777-6666-4444-6666-7-9-|
E|-5555-4444-2222-4444-5-7-|
   A    G#5  F#5  G#5  A B

(Guitar 2)
e|------------------14-12-11-1212-1212-12/14-12-11-1212-12121212-|
B|-9-10-11-12121212----------------------------------------------|
G|------------------11--9--8--9-9--9-9--9/11--9--8--9-9--9-9-9-9-|
D|-6--7--8--9-9-9-9----------------------------------------------|
A|---------------------------------------------------------------|
E|---------------------------------------------------------------|

e|-5555-7777-9999-11111111-12-14-|
B|-------------------------------|
G|-2222-4444-6666--8-8-8-8--9-11-|
D|-------------------------------|
A|-------------------------------|
E|-------------------------------|
 
[VERSE 1]

(Guitar 1)
Strums: Emaj7 C#m A F#m B7

(Guitar 2)
e|---------------------------------------|
B|-10/12---10/12-------------------------|
G|-------9-------99-8-9-9/11-11-99-8-9---|
D|-------------------------------------9-|
A|---------------------------------------|
E|---------------------------------------|

e|--------------------------------------------|
B|------9-9/10-10-9--------9/10-10-9-9--------|
G|-9-11-------------9/11-9-------------9/11-9-|
D|--------------------------------------------|
A|--------------------------------------------|
E|--------------------------------------------|

e|----------------------------|
B|-------------8/9------------|
G|-9----9----9-----11-9-8-999-|
D|---11---11------------------|
A|----------------------------|
E|----------------------------|

2nd time:

(Guitar 1)
Strums: E C#m A F#m B7

(Guitar 2)
e|----------------------------------------|
B|-10/12----10/12-------------------------|
G|-------99-------99-8-9-9/11-11-99-8-9---|
D|--------------------------------------9-|
A|----------------------------------------|
E|----------------------------------------|

e|--------------------------------------------|
B|------9-9/10-10-9--------9/10-10-9-9--------|
G|-9-11-------------9/11-9-------------9/11-9-|
D|--------------------------------------------|
A|--------------------------------------------|
E|--------------------------------------------|

e|---------------------------|
B|-------------7/9-12--------|
G|-9----9----9--------11-9-8-|
D|---11---11-----------------|
A|---------------------------|
E|---------------------------|

Continues...

(Guitar 1)
e|-------------------------------------------------|
B|-------------------------------------------------|
G|------8-9-9/11-9----7-9-9/11-9-11/13-13-11/13-13-|
D|-9/11------------10---------------------13/14-14-|
A|-------------------------------------------------|
E|-------------------------------------------------|

e|--------------------------------10-10/12-10-12-12/14-12-14------|
B|---------------9-10-12-13-12/13----------------------------0000-|
G|------8-9-9/11---------------------------------------------1111-|
D|-9/11------------------------------------------------------2222-|
A|-----------------------------------------------------------2222-|
E|----------------------------------------------------------------|

(Guitar 2) 
Strum: A Am E E, A Am C-D-E.

Repeat [CHORUS]
 
[VERSE 2]

(Guitar 1)
Strums: Emaj7 C#m A F#m B7

(Guitar 2)
e|---------------------------------------|
B|-10/12---10/12-------------------------|
G|-------9-------99-8-9-9/11-11-99-8-9---|
D|-------------------------------------9-|
A|---------------------------------------|
E|---------------------------------------|

e|--------------------------------------------|
B|------9-9/10-10-9--------9/10-10-9-9--------|
G|-9-11-------------9/11-9-------------9/11-9-|
D|--------------------------------------------|
A|--------------------------------------------|
E|--------------------------------------------|

e|--------------------|
B|-------------8/9----|
G|-9----9----9-----11-|
D|---11---11----------|
A|--------------------|
E|--------------------|

(Guitar 1)
E|-7h9p7----------|
B|-------9-10-7-9-|
G|----------------|
D|----------------|
A|----------------|
E|----------------|

(Guitar 2)
e|----------------|
B|-9h10p9-7-9-----|
G|------------8-9-|
D|----------------|
A|----------------|
E|----------------|

2nd time:

(Guitar 1)
e|----------------------------------------|
B|----------------------------------------|
G|----------------------------------------|
D|----------------------------------------|
A|-7~---7~---4~---4~----------------------|
E|--------------------5~---5~---2~---7~---|

(Guitar 2)
e|-------------------------------------------------------------|
B|-10/12----10/12-------------------------9-10-10/12-10-9------|
G|-------99-------99-8-9-9/11-11-9-8-9-11-----------------11-9-|
D|-------------------------------------------------------------|
A|-------------------------------------------------------------|
E|-------------------------------------------------------------|

e|-------------------------------------|
B|-9/10-10-9--------9/10-10-9-9--------|
G|-----------9/11-9-------------9/11-9-|
D|-------------------------------------|
A|-------------------------------------|
E|-------------------------------------|

e|---------------------------|
B|-------------7/9-12--------|
G|-9----9----9--------11-9-8-|
D|---11---11-----------------|
A|---------------------------|
E|---------------------------|

Continues...

(Guitar 1)
e|-------------------------------------------------|
B|-------------------------------------------------|
G|------8-9-9/11-9----7-9-9/11-9-11/13-13-11/13-13-|
D|-9/11------------10---------------------13/14-14-|
A|-------------------------------------------------|
E|-------------------------------------------------|

e|--------------------------------10-10/12-10-12-12/14-12-14------|
B|---------------9-10-12-13-12/13----------------------------0000-|
G|------8-9-9/11---------------------------------------------1111-|
D|-9/11------------------------------------------------------2222-|
A|-----------------------------------------------------------2222-|
E|----------------------------------------------------------------|

(Guitar 2) 
Strum: A Am E E, A Am C-D-E.

Repeat [CHORUS]

[INTERLUDE]

(Guitar 1)
e|-----17-17/15/14---------------------------------------|
B|---17-----------13/15-13-12-13-------------------------|
G|-17----------------------------12/14-12-12-------------|
D|-------------------------------------------12/14-12-12-|
A|-------------------------------------------------------|
E|-------------------------------------------------------|

e|----------------------------------14/15-14----------|
B|-17-15-13-17-15-13-17-15-13-15-17----------15-------|
G|----------------------------------------------11-13-|
D|----------------------------------------------12-14-|
A|----------------------------------------------------|
E|----------------------------------------------------|

e|----------------11/12-11-------------|
B|-14-12-14-12-14----------12----------|
G|----------------------------13/14-13-|
D|-------------------------------------|
A|-------------------------------------|
E|-------------------------------------|

e|----------------12-14-16-15-14-1212-14-151515151515-171717171717----|
B|-16-14-16-14-16----------------1212-12---------------------------0*-|
G|---------------------------------------121212121212-141414141414-1--|
D|-----------------------------------------------------------------2--|
A|-----------------------------------------------------------------2--|
E|-----------------------------------------------------------------0--|

(Guitar 2)
e|-7*--2*-------------|
B|-8---3--x2-0-000000-|
G|-9---4-----1-111111-|
D|-9---4-----2-222222-|
A|-----------2-222222-|
E|--------------------|
   Em  Bm 

e|-5*-7*-4*---6-5-4---0*-2*----|
B|-5--7--4----5-4-3---1--3--0*-|
G|-6--8--4----4-4-4---0--2--1--|
D|-7--9--6----6-5-4---2--0--2--|
A|-7--9--6----4-3-2---3-----2--|
E|-5--7--4---------------------|
   A  B  G#m          C  D  E

Repeat [CHORUS]
 
[CHORUS] extended:

(Guitar 1)
e|-5555-7777-9999-11111111-12-14-|
B|-------------------------------|
G|-2222-4444-6666--8-8-8-8--9-11-|
D|-------------------------------|
A|-------------------------------|
E|-------------------------------|

(Guitar 2)
e|--9--9--9--9--11-11-11-11-----9-11-|
B|-10-10-10-10--12-12-12-12-x2-10-12-|
G|--9--9--9--9--11-11-11-11-----9-11-|
D|-11-11-11-11--13-13-13-13----11-13-|
A|--9--9--9--9--11-11-11-11-----9-11-|
E|-----------------------------------|

2nd time:

(Guitar 1)
A - G#5 - F#5 - G#5 - A B.

(Guitar 2)
e|-5555-7777-9999-11111111-12-14-12-|
B|----------------------------------|
G|-2222-4444-6666--8-8-8-8--9-11--9-|
D|----------------------------------|
A|----------------------------------|
E|----------------------------------|

[OUTRO]

(Guitar 1)
e|----------^14-12----12-|
B|-10/12-14--------14----|
G|-----------------------|
D|-----------------------|
A|-----------------------|
E|-----------------------|

(Guitar 2)
e|-------------------|
B|-------------------|
G|--------^11-9----9-|
D|-8/9-11-------11---|
A|-------------------|
E|-------------------|

(Guitar 1)
e|-12-12-11/12-12-12-x3-------------------|
B|-12-12-11/12-12-12----------------------|
G|----------------------Some--------------|
D|---------------------------leading------|
A|-----------------------------------part-|
E|----------------------------------------|

(Guitar 2)
e|----------------------|
B|-0*---0*---0*---0*-x3-|
G|-1----3----4----6-----|
D|-2----4----5----7-----|
A|-2----4----5----7-----|
E|-0--------------------|
   Emaj F#11 Em7  Add9

(Guitar 1)
e|-12121212-14141414-17-16-|
B|-------------------------|
G|--9-9-9-9-11111111-14-13-|
D|-------------------------|
A|-------------------------|
E|-------------------------|

(Guitar 2)
e|-0000-2222-2----|
B|-1111-3333-3-0*-|
G|-0000-2222-2-2--|
D|-2222-0000-0-1--|
A|-3333--------2--|
E|----------------|
   C    D      E 

Tada! Have fun!
comments
We did not receive enough feedback on this tab! Please rate:
1 2 3 4 5
I want to post or [tab]
guest
You may want to rate the tab now too:
select rating
Please do not post tabs as comments. Select "correction" instead!