Oops, an error
Loading. Please wait.

Spur Tab

ver2
ver2

Whole song

Interactive

More versions @911Tabs.com
3,572 views 1 this week
no commentswrite comment
1 2 3 4 5
please rate
Autoscroll
+/-
esc
set tempo
stop
Contributor
Hey! There's an official Ultimate Guitar app which is ideal
for learning songs when you're away from computer. Get the app
WARNING: You are trying to view
                                    content from Ultimate-Guitar.com
                                    in an unauthorized application,
                                    which is prohibited.

                                    Please use an official Ultimate
                                    Guitar Tabs application for iPhone,
                                    iPad or Android to access legitimate
                                    chords, guitar, bass, and drum tabs
                                    from Ultimate-Guitar.com database.

                                    Type "ultimate guitar tabs" in Apple
                                    App Store's or Android Market's
                                    search to find the application.
Spur
by Depapepe


Tabbed by: Graham Choo & Ian Rollan Email: da_tweens@yahoo.co.uk
Tuning: Standard (Capo 3rd Fret)
Hi, this is my very first tab... This is not written by me.. It's by Graham Choo 
and Ian Rollan. They are the real ppl who wrote this.


Intro: C D/B Am G
e|-0---0---0---0---0---0---0---0---0---0---------------------------|
B|-1---0h1-3---0---1---1---0h1-3---1---0h1-------------------------|
G|-0---0---0---0---0---2---2---0---0---0---------------------------|
D|-2---2---0---0---0---2---2---0---0---0---------------------------|
A|-3---3---2---2---2---0---0---2---2---2---------------------------|
E|-----------------------------3---3---3---------------------------|

F Am7 Dm G
e|-0---0---0---0---0---0---0---0---0-------------------------------|
B|-1---0h1-1---0h1-1---0h1-3---1---0h1-----------------------------|
G|-2---2---0---0---2---2---0---0---0-------------------------------|
D|-3---3---2---2---0---0---0---0---0-------------------------------|
A|---------0---0-----------2---2---2-------------------------------|
E|-------------------------3---3---3-------------------------------|

OR

e|-----------10---12-----10---12-----10---10-----------------------|
B|-8-8-8-8-8----8----8-8----8----8-8----8--------------------------|
G|-----------------------------------------------------------------|
D|-----------------------------------------------------------------|
A|-----------------------------------------------------------------|
E|-----------------------------------------------------------------|

e|---10---12-----10---12-----10---10-------------------------------|
B|-8----8----8-8----8----8-8----8----------------------------------|
G|-----------------------------------------------------------------|
D|-----------------------------------------------------------------|
A|-----------------------------------------------------------------|
E|-----------------------------------------------------------------|

e|---10---12-----10---12-----10---10-------------------------------|
B|-8----8----8-8----8----8-8----8----------------------------------|
G|-----------------------------------------------------------------|
D|-----------------------------------------------------------------|
A|-----------------------------------------------------------------|
E|-----------------------------------------------------------------|

e|---10---12-----10---12-----10---10-------------------------------|
B|-8----8----8-8----8----8-8----8----------------------------------|
G|-----------------------------------------------------------------|
D|-----------------------------------------------------------------|
A|-----------------------------------------------------------------|
E|-----------------------------------------------------------------|

e|---10---12-----10---12-----10---10-------------------------------|
B|-8----8----8-8----8----8-8----8----------------------------------|
G|-----------------------------------------------------------------|
D|-----------------------------------------------------------------|
A|-----------------------------------------------------------------|
E|-----------------------------------------------------------------|

e|---10---12-----10---12-----10---10---10---12-----10---12---------|
B|-8----8----8-8----8----8-8----8----8----8----8-8----8----8-------|
G|-----------------------------------------------------------------|
D|-----------------------------------------------------------------|
A|-----------------------------------------------------------------|
E|-----------------------------------------------------------------|

Verse:

C D/B Am G F Am Dm G
e|-----------------------------------------------------------------|
B|-----------------1x--0x--1x--1x--0x--1x--1x--0x--1x--------------|
G|-0x--0x--2x------2x--2x--2x--2x--2x--2x--2x--2x--2x--0x----------|
D|-2x--0x--2x--0x--3x--3x--3x--2x--2x--2x--0x--0x--0x--0x----------|
A|-3x--2x--0x--2x--------------------------------------2x----------|
E|-------------3x--------------------------------------3x----------|

C D/B Am G F Am Dm G
e|-----------------------------------------------------------------|
B|-----------------1x--0x--1x--1x--0x--1x--1x--0x--1x--------------|
G|-0x--0x--2x------2x--2x--2x--2x--2x--2x--2x--2x--2x--0x----------|
D|-2x--0x--2x--0x--3x--3x--3x--2x--2x--2x--0x--0x--0x--0x----------|
A|-3x--2x--0x--2x--------------------------------------2x----------|
E|-------------3x--------------------------------------3x----------|

OR

e|-----------------------------------------------------------------|
B|-------------5-5-------------5-5-8-8-6-6-5-5-----8-8-6-6-5-5-----|
G|-----5-5-7-7---------5-5-7-7-----------------5-5-------------7-7-|
D|-5-5-------------5-5---------------------------------------------|
A|-----------------------------------------------------------------|
E|-----------------------------------------------------------------|

e|-----------------------------------------------------------------|
B|-------------5-5-------------5-5-8-8-6-6-5-5-----8-8-6-6-5-5-----|
G|-----5-5-7-7---------5-5-7-7-----------------5-5-------------7-7-|
D|-5-5-------------5-5---------------------------------------------|
A|-----------------------------------------------------------------|
E|-----------------------------------------------------------------|

Pre-Chorus 1:
Am G F Am F Dm G
e|-----------------------------------------------------------------|
B|-1x------1x--1x--1x--1x------------------------------------------|
G|-2x------2x--0x--2x--2x--0x----------------0-0h2-0---------------|
D|-2x--0x--3x--2x--3x--0x--0x----------0-2-3-----------------------|
A|-0x--2x------------------2x----0-2-3-----------------------------|
E|-----3x------------------3x--3-----------------------------------|

OR

e|-----------5-7-8-7-5-----------------------5-7-8-7-5-------------|
B|-----5-6-8-----------8-6-5-----------5-6-8-----------8-6-5-------|
G|-5-7-----------------------7-5-4-5-7-----------------------7-5-4-|
D|-----------------------------------------------------------------|
A|-----------------------------------------------------------------|
E|-----------------------------------------------------------------|

e|-----------5-7-8-7-5-----------------------5-7-8-7-5-------------|
B|-----5-6-8-----------8-6-5-----------5-6-8-----------8-6-5-------|
G|-5-7-----------------------7-5-4-5-7-----------------------7-5-4-|
D|-----------------------------------------------------------------|
A|-----------------------------------------------------------------|
E|-----------------------------------------------------------------|

e|-7---7-----------------------------------------------------------|
B|-------------5-6-8-8---------------------------------------------|
G|---4---4-5-7-----------------------------------------------------|
D|-----------------------------------------------------------------|
A|-----------------------------------------------------------------|
E|-----------------------------------------------------------------|

Chorus 1:

C E Esus E Am7 Am/G F Dm G Em Am F Fm G

e|-0---0---0---0---0---0---1---1---3---0---0---1---1---3-----------|
B|-1---0---0---0---1---1---1---3---0---0---1---1---1---0-----------|
G|-0---1---2---1---0---0---2---2---0---0---2---2---1---0-----------|
D|-2---2---2---2---2---2---3---0---0---2---2---3---3---0-----------|
A|-3---2---2---2---0---0---3-------2---2---0---3---3---2-----------|
E|-----0---0---0-------3---1-------3---0-------1---1---3-----------|

OR

e|-----------------------------------------------------------------|
B|-------5h6-5-5-5-6-5---------------------------------------------|
G|---5-7---------------7-5-7-7/9-9---------------------------------|
D|-5---------------------------------------------------------------|
A|-----------------------------------------------------------------|
E|-----------------------------------------------------------------|

e|---------8/10-8-8-7-7--------------------------------------------|
B|-9-10-12--------------10-10-8-8-6-6-5-5h6------------------------|
G|-----------------------------------------------------------------|
D|-----------------------------------------------------------------|
A|-----------------------------------------------------------------|
E|-----------------------------------------------------------------|

e|-----------------------------------5-7-7h8-7h8-------------------|
B|-5-6-5-------5-6-6/8-6-5-6-6/8-8-8-------------------------------|
G|-------7-5-7-----------------------------------------------------|
D|-----------------------------------------------------------------|
A|-----------------------------------------------------------------|
E|-----------------------------------------------------------------|

e|-8-10-12-12-12/13-12-10-8-10-10-8-8-8-7-8-7----------------------|
B|--------------------------------------------8/10-8---------------|
G|-----------------------------------------------------------------|
D|-----------------------------------------------------------------|
A|-----------------------------------------------------------------|
E|-----------------------------------------------------------------|

Pre-Chorus 2:
Am G F Am F Dm G
e|-----------------------------------------------------------------|
B|-1x------1x--1x--1x--1x----------------------------1-3-----------|
G|-2x------2x--0x--2x--2x--0x------------------0-2-4---------------|
D|-2x--0x--3x--2x--3x--0x--0x--0---------0-2-3---------------------|
A|-0x--2x------------------2x------0-2-3---------------------------|
E|-----3x------------------3x----3---------------------------------|

OR

e|-----------5-7-8-7-5-----------------------5-7-8-7-5-------------|
B|-----5-6-8-----------8-6-5-----------5-6-8-----------8-6-5-------|
G|-5-7-----------------------7-5-4-5-7-----------------------7-5-4-|
D|-----------------------------------------------------------------|
A|-----------------------------------------------------------------|
E|-----------------------------------------------------------------|

e|-----------5-7-8-7-5-----------------------5-7-8-7-5-------------|
B|-----5-6-8-----------8-6-5-----------5-6-8-----------8-6-5-------|
G|-5-7-----------------------7-5-4-5-7-----------------------7-5-4-|
D|-----------------------------------------------------------------|
A|-----------------------------------------------------------------|
E|-----------------------------------------------------------------|

e|-7---7---------5-7-8-10-12-13------------------------------------|
B|---------5-6-8---------------------------------------------------|
G|---4---7---------------------------------------------------------|
D|-----------------------------------------------------------------|
A|-----------------------------------------------------------------|
E|-----------------------------------------------------------------|

Chorus 2:

D F# Bm Bm/A G Em A7 F#m Bm G Bb A Asus A
e|-2---2---2---2---0---0---0---2---2---3---6---0---0---0-----------|
B|-3---2---3---3---3---0---2---2---3---0---6---2---3---2-----------|
G|-2---3---4---4---4---0---0---2---4---0---7---2---2---2-----------|
D|-0---4---4---4---5---2---2---4---4---0---8---2---2---2-----------|
A|-----4---2---0---5---2---0---4---2---2---8---0---0---0-----------|
E|-----2-----------3---0-------2-------3---6-----------------------|

D F# Bm Bm/A G Em A7 F#m Bm G A
e|-2---2---2---2---0---0---0---2---2---3---0-----------------------|
B|-3---2---3---3---3---0---2---2---3---0---2-----------------------|
G|-2---3---4---4---4---0---0---2---4---0---2-----------------------|
D|-0---4---4---4---5---2---2---4---4---0---2-----------------------|
A|-----4---2---0---5---2---0---4---2---2---0-----------------------|
E|-----2-----------3---0-------2-------3---------------------------|

OR

e|-----------------------------------------------------------------|
B|-------7h8-7-7-7-8-7---------------------------------------------|
G|---7-9---------------9-7-9-9/11-11-------------------------------|
D|-7---------------------------------------------------------------|
A|-----------------------------------------------------------------|
E|-----------------------------------------------------------------|

e|----------10/12-10-10-9-9----------------------------------------|
B|-11-12-14-----------------12-12-10-10-8-8-7-7h8------------------|
G|-----------------------------------------------------------------|
D|-----------------------------------------------------------------|
A|-----------------------------------------------------------------|
E|-----------------------------------------------------------------|

e|---------------------------------------7-9-9h10-10---------------|
B|-7-8-7-------7-8-8/10-8-7-8-8/10-10-10---------------------------|
G|-------9-7-9-----------------------------------------------------|
D|-----------------------------------------------------------------|
A|-----------------------------------------------------------------|
E|-----------------------------------------------------------------|

e|-10-12-14-14-15-14-12\10-10-12-12-10-10-10-9-10-9----------------|
B|--------------------------------------------------10/12-10-------|
G|-----------------------------------------------------------------|
D|-----------------------------------------------------------------|
A|-----------------------------------------------------------------|
E|-----------------------------------------------------------------|

e|-----------------------------------------------------------------|
B|-------7h8-7-7-7-8-7---------------------------------------------|
G|---7-9---------------9-7-9-9/11-11-------------------------------|
D|-7---------------------------------------------------------------|
A|-----------------------------------------------------------------|
E|-----------------------------------------------------------------|

e|----------10/12-10-10-9-9----------------------------------------|
B|-11-12-14-----------------12-12-10-10-8-8-7-7h8------------------|
G|-----------------------------------------------------------------|
D|-----------------------------------------------------------------|
A|-----------------------------------------------------------------|
E|-----------------------------------------------------------------|

e|---------------------------------------7-9-9h10-10---------------|
B|-7-8-7-------7-8-8/10-8-7-8-8/10-10-10---------------------------|
G|-------9-7-9-----------------------------------------------------|
D|-----------------------------------------------------------------|
A|-----------------------------------------------------------------|
E|-----------------------------------------------------------------|

e|-10-12-14-14-15-14-12\10-10-12-12-10-9---------------------------|
B|-----------------------------------------------------------------|
G|-----------------------------------------------------------------|
D|-----------------------------------------------------------------|
A|-----------------------------------------------------------------|
E|-----------------------------------------------------------------|

Outro:
D A Bm Bm/A G A Bm A
e|-2---0---2---2---3---0---2---0-----------------------------------|
B|-3---2---3---3---0---2---3---2-----------------------------------|
G|-2---2---4---4---0---2---4---2-----------------------------------|
D|-0---2---4---4---0---2---4---2-----------------------------------|
A|-----0---2---0---2---0---2---0-----------------------------------|
E|-----------------3-----------------------------------------------|

D
e|-----------------------------------------------------------------|
B|-3-----------3---------3---3-----------3-------------------------|
G|---2---2---2---2---2-----2---2---2---2---------------------------|
D|-0---0---0---0---0---0-----0---0---0---0-------------------------|
A|-----------------------------------------------------------------|
E|-----------------------------------------------------------------|

OR

e|------------7-9-10-9-7-------------------------------------------|
B|-----7-8-10------------10-8-7------------------------------------|
G|-7-9--------------------------9-7-6------------------------------|
D|-----------------------------------------------------------------|
A|-----------------------------------------------------------------|
E|-----------------------------------------------------------------|

e|------------7-9-10-9-7-------------------------------------------|
B|-----7-8-10------------10-8-7------------------------------------|
G|-7-9--------------------------9-7-6------------------------------|
D|-----------------------------------------------------------------|
A|-----------------------------------------------------------------|
E|-----------------------------------------------------------------|

e|------------7-9-10-9-7-------------------------------------------|
B|-----7-8-10------------10-8-7------------------------------------|
G|-7-9--------------------------9-7-6------------------------------|
D|-----------------------------------------------------------------|
A|-----------------------------------------------------------------|
E|-----------------------------------------------------------------|

e|------------7-9-10-9-7-------------------------------------------|
B|-----7-8-10------------10-8-7------------------------------------|
G|-7-9--------------------------9-7-6------------------------------|
D|-----------------------------------------------------------------|
A|-----------------------------------------------------------------|
E|-----------------------------------------------------------------|

e|------------7-9-10-9-7-------------------------------------------|
B|-----7-8-10------------10-8-7------------------------------------|
G|-7-9--------------------------9-7-6------------------------------|
D|-----------------------------------------------------------------|
A|-----------------------------------------------------------------|
E|-----------------------------------------------------------------|

e|------------7-9-10-9-7-------------------------------------------|
B|-----7-8-10------------10-8-7------------------------------------|
G|-7-9--------------------------9-7-6-7-6--------------------------|
D|-----------------------------------------------------------------|
A|-----------------------------------------------------------------|
E|-----------------------------------------------------------------|
| / slide up
| \ slide down
| h hammer-on
| p pull-off
| ~ vibrato
| + harmonic
| x Mute note
comments
We did not receive enough feedback on this tab! Please rate:
print report bad tab
1 2 3 4 5
I want to post or [tab]
guest
You may want to rate the tab now too:
select rating
Please do not post tabs as comments. Select "correction" instead!