Oops, an error
Loading. Please wait.

Just Cant Get Enough Tab

ver2
ver2

Intro

Whole song

More versions @911Tabs.com
8,278 views 51 this week
no commentswrite comment
1 2 3 4 5
excellent!
x 3
Autoscroll
+/-
esc
set tempo
stop
Contributor
WARNING: You are trying to view
                                    content from Ultimate-Guitar.com
                                    in an unauthorized application,
                                    which is prohibited.

                                    Please use an official Ultimate
                                    Guitar Tabs application for iPhone,
                                    iPad or Android to access legitimate
                                    chords, guitar, bass, and drum tabs
                                    from Ultimate-Guitar.com database.

                                    Type "ultimate guitar tabs" in Apple
                                    App Store's or Android Market's
                                    search to find the application.
-------------------------------------------------------------------------------
			     Just Can't Get Enough - Depeche Mode
-------------------------------------------------------------------------------
Tabbed by: Ashers67
Email: Ashley_d_is_still@hotmail.com

Standard Tuning:
Low to High - Eadgbe

Intro riff
   G
e|-3--3-3-3-3-3-5--7--------------------|  \
b|--------------------------------------|  |
g|--------------------------------------|  |- X2
d|--------------------------------------|  |
a|--------------------------------------|  |
E|--------------------------------------|  /

   G                  C
e|-3--3-3-3-3-3-5--7--8--7--5--7--------|
b|--------------------------------------|
g|--------------------------------------|
d|--------------------------------------|
a|--------------------------------------|
E|--------------------------------------|

Main Riff

   G/C (1st+2nd/3rd)*
e|-3--3-3-3-3-3-5--7--------------------|  \
b|--------------------------------------|  |
g|--------------------------------------|  | x 3
d|--------------------------------------|  |*First two times played with a 
a|--------------------------------------|  |*G Chord, third time a C chord
E|--------------------------------------|  /

   C
e|-3--3-3-8-8-7-5-7---------------------|
b|--------------------------------------|
g|--------------------------------------|
d|--------------------------------------|
a|--------------------------------------|
E|--------------------------------------|

Verse Riff

   G                                    C
e|---------------------------------------------------------------------------|
B|---------------------------------------------------------------------------|
G|---------------------------------------------------------------------------|
D|-----5-55-5-------------5-55-5---------------------------------------------|
A|-------------5-7----------------5-7---3--3-3-3-3-3-5--7--3--3-3-3-3-3-5--7-|
E|-3-3-------3--------3-3-------3--------------------------------------------|

Chorus

1. We slip and slide as we fall in love...  
2. It's getting harder, it's a burning love...
3. You're like an angel and you give me your love...

Chorus Riff 1 (continues from  verse riff)

   D                 Em               C                Csus2/D 
e|---------------------------------------------------------------------------|
B|---------------------------------------------------------------------------|
G|------7----7--7--------9----9--9--------5----5--5--------7----7--7---------|
D|---------------------------------------------------------------------------|
A|--5-5---55--5---55-7-7---77--7---77-3-3---33--3---33-5-5---55--5---55------|
E|---------------------------------------------------------------------------|

Chorus Riff 2 (Guitar 1)

 N.B. last note of this riff (in brackets) is the first note of the main riff
      that starts immediately afterwards
        D                 Em        C          Csus2/D                           
e|------5-----------------7---5--3--8---7--8---10---8--7--(3)----------------|
B|--------------------3------------------------------------------------------|
G|---------------------------------------------------------------------------|
D|---------------------------------------------------------------------------|
A|---------------------------------------------------------------------------|
E|---------------------------------------------------------------------------|

Post Chorus Interlude riff (not played in the first post chorus)

    G                                   C
e|--12--10--------12--10----------------17--15-------17------20-19-17-(15)---|
B|----------12----------12---13--15-13----------17------15-------------------|
G|---------------------------------------------------------------------------|
D|---------------------------------------------------------------------------|
A|---------------------------------------------------------------------------|
E|---------------------------------------------------------------------------|

Above riff in different position (octave lower)

    G                                 C
e|------------------------------------5----------5-----8---7-5-(3)-----------|
B|--5--3--0------5--3--0---1---3-(1)-----8--5-------8------------------------|
G|---------------------------------------------------------------------------|
D|---------------------------------------------------------------------------|
A|---------------------------------------------------------------------------|
E|---------------------------------------------------------------------------|

Bridge riff

    A                             D                    A
e|----------9-----10-10-9----------------------------------9-----10-10-9-----|
B|--10--10-----10---------10------------7---88-7-------10-----10---------10--|
G|----------------------------9---7--7----7------7--------------------------9|
D|-------------------------------------------------7-------------------------|
A|---------------------------------------------------------------------------|
E|---------------------------------------------------------------------------|

Trumpet part

     Em7   Fdim F       D7       G
e|---5-----7--7-8---8---10-10----15-----------------------------------------|
B|---5-----6--6-7---7---8--8-----15-----------------------------------------|
G|--------------------------------------------------------------------------|
D|--------------------------------------------------------------------------|
A|--------------------------------------------------------------------------|
E|--------------------------------------------------------------------------|

Breakdown:

G	
I just can't get enough, I just can't get enough

C
I just can't get enough, I just can't get enough
  
	The above is sung and played 4 times.
	
First time, just bass line verse riff (continues throughout)
	
Second time, addition of percussive rhythm, can play muted notes
as [ E|--x-- ] in suitable rhythm, on low e string at third fret

Third Time in comes arpeggio type thing playing only the root notes
of chords, G notes (fret 3 on Low E string, 5 on D string) and C
notes (fret 3 on the A string and 5 on the G string) once again you
can improvise rhythms the or listen to song to figure them out.
Also, the G chord changes to a G7 chord for the rest of the breakdown

Fourth Time, Main riff comes in.
	
End on a long slide going from any G note to the next G note up,
I play the G on the low E string:

E|-----3//////////////////15-------------------------------------------------|

Post Chorus Interlude 2
  G                                     C
e|---------7--5--3-------------7--5--3---------------------------------------|
b|5--3--5-------------5--3--5--------------------5---3---------------5---3---|
g|--------------------------------------5--2--5----------5--5--2--5---------5|
d|---------------------------------------------------------------------------|
a|---------------------------------------------------------------------------|
E|---------------------------------------------------------------------------|


==============================================================================

Order:

Intro Riff        		      	x1

Main Riff         		       	x2
verse riff      		       	x2
both chorus riffs 1 + 2 	       	x1
main riff         		       	x2
verse riff        		       	x2
both chorus riffs 1 + 2                	x1
main riff + post chorus interlude riff1 x2
Bridge					x1
Trumpet Part				x1

Breakdown as described above            x1

Pause for a cappella verse

Both Chorus riffs			x1
Main riff + post chorus interlude riff2 x2
Bridge					x1
Trumpet Part				x1

Outro:
Main Riff				x2
Main Riff + post chorus interlude riff1 x2 till fade

on the second time the main riff is played in the outro, in comes
the same thing that came in the third time through on the breakdown
which continues until the end


|============================================================================|
| Bass Lines                                                                 |
|============================================================================|

  riff 1/Verse

g|----------------------------------------------|
d|-----------------------------3--2-------------|
a|------3--2-------3--2--3-3---------3-3----3--3|
E|3-3---------3-3-------------------------------|

  riff 2/Chorus

g|---------------------------------------------------------------------------|
d|---------------------------------------------------------------------------|
a|5-5---5--5-7-7---7--7-3-3---3--3-5-5---------------------------------------|
E|---------------------------------------------------------------------------|

  riff 3/Bridge

g|---------------------------------------------------------------------------|
d|7-7---7--7------------7-7---7--7---2---3---4--5----------------------------|
a|-----------5-5---5--5--------------2---3---4--5----------------------------|
E|---------------------------------0---1---2---3-----------------------------|

on riff 3/bridge,
not sure whether the 2,3,4,5 notes are played on A string or D string
I think it's the D string, playing octaves apart, but playing them on
the A string 5ths apart sounds fine too.

==============================================================================
Order:

riff 1   X4
riff 2   x1
riff 1   x4
riff 2   x1
riff 1   x2
riff 3   x1
riff 1   x4
Pause for length of riff 1 x2
riff 2   x1
riff 1   x2
riff 3   x1
riff 1   x4 til it fades out


Legend:
| x  Mute note
===============================================================================
comments
We did not receive enough feedback on this tab! Please rate:
1 2 3 4 5
I want to post or [tab]
guest
You may want to rate the tab now too:
select rating
Please do not post tabs as comments. Select "correction" instead!