Oops, an error
Loading. Please wait.

Layla Bass Tab

ver1
ver1

Whole song

More versions @911Tabs.com
11,108 views 10 this week
3 commentsread comments
1 2 3 4 5
worth learning
x 8
Autoscroll
+/-
esc
set tempo
stop
Difficulty
intermediate
WARNING: You are trying to view
                                    content from Ultimate-Guitar.com
                                    in an unauthorized application,
                                    which is prohibited.

                                    Please use an official Ultimate
                                    Guitar Tabs application for iPhone,
                                    iPad or Android to access legitimate
                                    chords, guitar, bass, and drum tabs
                                    from Ultimate-Guitar.com database.

                                    Type "ultimate guitar tabs" in Apple
                                    App Store's or Android Market's
                                    search to find the application.
This is my first tab so please dont be too critical, but
i got fed up of the other tabs 'cos they dont quite get it right.

Intro/chorus 

|----------------|---------------|-------------|
|-------0-3-0----|---------------|-------------|
|---0-3-------3--|-5--5-3-1--1-1-|-3--3-3-5--5-|
|----------------|---------------|-------------|

Verse

|---------|---------|---------|---------|---------|
|---------|---------|-2-2-----|---------|---------|
|-4-4-4-4-|-2-2-2-2-|-----2-2-|---------|---------|
|---------|---------|---------|-2-2-2-2-|-4-4-4-4-|

verse part 2
G|------------------------------------|
D|----------1-1-------------1-1-------|
A|------1-1-----0-0-----1-1-----0-0---|
E|--1-1-------------1-1---------------|
comments
print report bad tab
3 comments total.
0 reply
dilllard91 wrote on July 5 2007, 02:22 pm

hey, not bad for your first. |----------------|---------------|-------------|
|-------0-3-0--0-|---------------|-------------|
|---0-3-------3--|-5--5-3-1--1-1-|-3--3-3-5--5-|
|----------------|---------------|-------------|, other than that, it's good

+2 reply
giladklos wrote on August 2 2009, 07:26 am

i preety like this song but it isnt correct

0 reply
zimmj002 wrote on September 9 2011, 02:46 am

Close,but no cigar. I just posted the correct, its a bit more complex. check it out.

I want to post or [tab]
guest
You may want to rate the tab now too:
select rating
Please do not post tabs as comments. Select "correction" instead!