Oops, an error
Loading. Please wait.

Bell Bottom Blues Tab

ver1
ver1

Whole song

Interactive

More versions @911Tabs.com
46,777 views 84 this week
5 commentsread comments
1 2 3 4 5
excellent!
x 12
Autoscroll
+/-
esc
set tempo
stop
Contributor
WARNING: You are trying to view
                                    content from Ultimate-Guitar.com
                                    in an unauthorized application,
                                    which is prohibited.

                                    Please use an official Ultimate
                                    Guitar Tabs application for iPhone,
                                    iPad or Android to access legitimate
                                    chords, guitar, bass, and drum tabs
                                    from Ultimate-Guitar.com database.

                                    Type "ultimate guitar tabs" in Apple
                                    App Store's or Android Market's
                                    search to find the application.
BELL BOTTOM BLUES
As recorded by Derek & the Dominos
From the 1970 Album LAYLA AND OTHER ASSORTED LOVE SONGS)




 Words and Music by Eric Clapton

 



Gtr I (E A D G B E) - 'Eric Clapton'
Gtr II (E A D G B E) - 'Duane Allman'
Gtr III (E A D G B E) - 'Bobby Whitlock'


 Intro
       Q=66
                    C         E/B
 4/4
       Gtr I
  H    E E S E S    a E E E E E E E E
|----------------||-------------------|
|--------------0-||-----1-------------|
|----------------||-------0-------1---|
|------------0---||-0h2-----2---2---2-|
|--------2-3-----||-----------2-------|
|----------------||-------------------|


  A5      C/G       F5      G
  E E E E E E E E   E E E E E E +S  S S S
|-----------------|------------------------|
|-----------------|------------------------|
|-----2-----------|-----------------4------|
|---2---2-----2---|-----3-3s5---------5s3--|
|-0---------3---3-|---3---3s5-5-(5)--------|
|---------3-------|-1----------------------|


                                                      Verse
  F                         G7                         C       E
  Gtr III
                             ~~~~~~~
   S   S  S  S      +S    S  E           +H            W
|-13---------------------10--------------------------|-----------------|
|-----13-11-----------------11----------(11)---------|-----------------|
|-----------12b14==(12)r-----------------------------|-----------------|
|----------------------------------------------------|-----------------|
|----------------------------------------------------|-----------------|
|----------------------------------------------------|-----------------|
|
| Gtr II
|                                         ~~~~
|  S   S  S  S      +S    S  S      +S   +Q    +Q      W
|-13--13-11------------------------------------------|-----------------|
|-13--13-11--------------13--------------------------|-----------------|
|-----------12b14==(12)r----12pb14r(12)-(12)--(12)\--|-----------------|
|----------------------------------------------------|-----------------|
|----------------------------------------------------|-----------------|
|----------------------------------------------------|-----------------|
|
| Gtr I
|  E.        S       E       E           +H            E E E E E E E E
|----------------------------------------------------|-----------------|
|--1---------1---------------3-----------(3)---------|-----------------|
|--2---------2---------------4-----------(4)---------|-----0-------1---|
|--3---------3---------------3-----------(3)---------|---2---2---2-----|
|--3---------3---------------------------------------|-3-------2-----2-|
|--1---------1---------------3-----------(3)---------|-----------------|


  A5          C/G                      F5         G
                                       ~
  E S S E E   S S    +S  S S   +S  E   Q   +E   E H
|------------------------------------|----------------------|
|-------------8----------------------|----------------------|
|-------5-7b9---7pb9r(7)-5-7b9r(7)p5-|-5---(5)\-------------|
|---5-7------------------------------|----------------------|
|------------------------------------|----------------------|
|------------------------------------|----------------------|
|
| W                                    W
|------------------------------------|----------------------|
|------------------------------------|----------------------|
|------------------------------------|----------------------|
|------------------------------------|----------------------|
|------------------------------------|----------------------|
|------------------------------------|----------------------|
|
| E E   E E   E       E    E       E   E E  E   E E E E E
|------------------------------------|----------------------|
|------------------------------------|----------------------|
|-------2----------------------------|----------------------|
|---2-----2----------------2---------|------3---3s5---5-----|
|-0-------------------3--------------|---3------3-5-5---5\--|
|-------------3--------------------3-|-1--------1s3---------|


  F                         G7                    C       E
                             ~~~~~~~
   S   S  S  S      +S    S  E           +H       W
|-13---------------------10---------------------|-----------------|
|-----13-11-----------------11----------(11)----|-----------------|
|-----------12b14==(12)r------------------------|-----------------|
|-----------------------------------------------|-----------------|
|-----------------------------------------------|-----------------|
|-----------------------------------------------|-----------------|
|
|                                         ~~~~
|  S   S  S  S      +S    S  S      +S   +H       W
|-13--13-11-------------------------------------|-----------------|
|-13--13-11--------------13---------------------|-----------------|
|-----------12b14==(12)r----12pb14r(12)-(12)----|-----------------|
|-----------------------------------------------|-----------------|
|-----------------------------------------------|-----------------|
|-----------------------------------------------|-----------------|
|
|  E.        S       E       E           +H       E E E E E E E E
|-----------------------------------------------|-----------------|
|--1---------1---------------3-----------(3)----|-----------------|
|--2---------2---------------4-----------(4)----|-----0-------1---|
|--3---------3---------------3-----------(3)----|---2---2---2-----|
|--3---------3----------------------------------|-3-------2-----2-|
|--1---------1---------------3-----------(3)----|-----------------|


  A5                 C/G                           F5                   G
                                                                 ~~~
    E  Q           e   E           E     S  S  E     S      +S   Q.     H
|------------------------------------------------|-----------------------------------||
|-----20b22-------20-<17>------------------------|-----------------------------------||
|---------------------------------19b21-17-------|--19pb21r(19)-17-------------------||
|------------------------------------------19-17-|-----------------------------------||
|------------------------------------------------|-----------------------------------||
|------------------------------------------------|-----------------------------------||
|
|                                  ~~~~~~~~
|   E  E     Q         S      +S   E     Q          +H                  Q   E S   S
|------------------------------------------------|-----------------------------------||
|-----13----15b17-----15pb17r(15)-13----13-------|-(13)---------------------------5--||
|-/14--------------------------------------------|----------------------------7b9----||
|------------------------------------------------|-----------------------------------||
|------------------------------------------------|-----------------------------------||
|------------------------------------------------|-----------------------------------||
|
|   E  E     E     E   E           E     E     E     E           E  E E E E E S   S
|------------------------------------------------|-----------------------------------||
|------------------------------------------------|-----------------------------------||
|------------2-----------------------------------|------------------------4---4------||
|------2-----------2---------------------2-------|------------------3-3s5-5---5------||
|---0------------------------------3-------------|---------------3----3s5-5-5-5------||
|----------------------3-----------------------3-|---1----------------1s3---3-3---5--||


 Pre-Chorus
  A          E/G#       F#m                     D                E
                                        ~~~~~~
  W                     E      E        E  E     S   S   S  S     S  S  S      +S
|---------------------|-------------------------17------------------17-------------|
|---------------------|-------20b22====20-20r-------20--17-------------------------|
|---------------------|------------------------------------19b21-19----19pb21r(19)-|
|---------------------|------------------------------------------------------------|
|---------------------|------------------------------------------------------------|
|---------------------|------------------------------------------------------------|
|
| s E. +Q    +Q   Q     S   S  E        E  E     S  +S   S  S     S  S  E
|-5-5--(5)---(5)------|-------10b12====10-10----10r(10)--9-------------------------|
|---------------------|----10------------------------------10-----9----------------|
|---------------------|----------------------------------------------9s=7----------|
|---------------------|------------------------------------------------------------|
|---------------------|------------------------------------------------------------|
|---------------------|------------------------------------------------------------|
|
| Q     E  E  Q   E e   E.           S  E  S  S  S   S   S  S     S  S  E
|---------------------|------------------------------------------------------------|
|-------5-----5---5-5-|-2-----------------------------------------------0----------|
|-6--------6--4---4-4-|-2---------------2-----0--2---2---2--------------1----------|
|-7-----------2---2-2-|-4------------4-----4-----0---0------0-----2--2--2----------|
|-7-----------x-------|-4----------------------------------------------------------|
|-5-----------4-------|-2----------------------------------------------------------|


     A         E/G#
      ~~
   a  Q  Q     H
|-------------------------|
|-------------------------|
|-17h18-------------------|
|-------------------------|
|-------------------------|
|-------------------------|
|
|     ~~
|  a  Q  E E   H
|-------------------------|
|-------------------------|
|--5h=6--6----------------|
|-------------------------|
|-------------------------|
|-------------------------|
|
|     Q  E S S E. S E S S
|--------------0----------|
|--------2----------5-----|
|-----2----2---4--4---4---|
|-----2------5-2--------4-|
|-----0-------------------|
|--------------4----------|


  F#m                               D             E
                                           ~~~~~~~~~~~~~~~~~~
     |---3----|
  E  S     S  S  E       S      +S   E     Q           E
|------------17-21b22---21b22r=(21)-17----------------17\-------|
|---17----19------------------------------21b22-----------------|
|---------------------------------------------------------------|
|---------------------------------------------------------------|
|---------------------------------------------------------------|
|---------------------------------------------------------------|
|
| E  E           E       S      +S   S  S  E      S S  S    +S
|---10b12-------10b12---10pb12r(10)--9--------------------------|
|--------------------------------------10-10--------------------|
|-------------------------------------------------7-9--9b13r(9)-|
|---------------------------------------------------------------|
|---------------------------------------------------------------|
|---------------------------------------------------------------|
|
| E  E           S    S  S       S   S  S  S    S S S  E
|---------------------------------------------------------------|
|-------------------------------------------------0-0--0--------|
|-2----------------------------------2--2--2----2-1-1--1--------|
|-4--------------4----4--4-----------0--0--0----0-2-2--2--------|
|-4--4---------------------------5------------------------------|
|---------------------------------------------------------------|


 Chorus
  A                Amaj7 A7        D       D/B
   E  E  E  E  E E E E   E E E S S  E  S S E S S
|----------------------|--------------------------|
|-10-10-10-10-10-9-9-9-|-8-8-8-8s7-10-10s7-7-7s9--|
|----------------------|--------------------------|
|----------------------|--------------------------|
|----------------------|--------------------------|
|----------------------|--------------------------|
|
|  E  E  E  E  E E E E   E E E S S  E  S S E S S
|--9-----9-----9---9---|-9---9--------------------|
|----10----10----9---9-|---8---8s7-10-10s7-7-7s9--|
|----------------------|--------------------------|
|----------------------|--------------------------|
|----------------------|--------------------------|
|----------------------|--------------------------|
|
|  Q     E  E  Q   E E   Q   E E    E  E   E E
|----------------------|--------------------------|
|--2-----2--2--2---2-2-|-2---2-2------------------|
|--2-----2--2--1---1-1-|-0---0-0----2--2---2-2----|
|--2-----2--2--2---2-2-|-2---2-2----0--0---0-0----|
|--0-----0--0--0---0-0-|-0---0-0------------------|
|----------------------|--------------------------|


  E                      A           Amaj7      A7        D       D/B
 2/4                    4/4
  S  S  S  S  S   S  e    E  E  E  E  E E E E   E E E S S  E  S S E S S
|-------------------10-|----------------------|-------------------------|
|-9s10-10----12--------|-10-10-10-10-10-9-9-9-|-8-8-8-8s7-10-10s7-7-7s9-|
|---------------/11----|----------------------|-------------------------|
|---------12-----------|----------------------|-------------------------|
|----------------------|----------------------|-------------------------|
|----------------------|----------------------|-------------------------|
|
| E     E     E      E    E  E  E  E  E E E E   E E E S S  E  S S E S S
|----------------------|--9-----9-----9---9---|-9---9-------------------|
|-9--------------------|----10----10----9---9-|---8---8s7-10-10s7-7-7s9-|
|-------7-----7-----11-|----------------------|-------------------------|
|----------------------|----------------------|-------------------------|
|----------------------|----------------------|-------------------------|
|----------------------|----------------------|-------------------------|
|
| E     E     E      E    Q     E  E  Q   E E   Q   E E    E  E   E E
|-0-----0-----0------0-|----------------------|-------------------------|
|-0-----0-----0------0-|--2-----2--2--2---2-2-|-2---2-2-----------------|
|-1-----1-----1------1-|--2-----2--2--1---1-1-|-0---0-0----2--2---2-2---|
|-2-----2-----2------2-|--2-----2--2--2---2-2-|-2---2-2----0--0---0-0---|
|-2-----2-----2------2-|--0-----0--0--0---0-0-|-0---0-0-----------------|
|-0-----0-----0------0-|----------------------|-------------------------|


  E                       F                         G7
 2/4                     4/4
                                                     ~~
  S  S  S  S  S   S  e     S   S  S  S      +S    S  E  +H
|-------------------10-||-13---------------------10------------||
|-9s10-10----12--------||-----13-11-----------------11-(11)----||
|---------------/11----||-----------12b14==(12)r---------------||
|---------12-----------||--------------------------------------||
|----------------------||--------------------------------------||
|----------------------||--------------------------------------||
|
|                                                    ~~
| E     E     E      E     S   S  S  S      +S    S  E  +H
|----------------------||--------------------------------------||
|-9--------------------||-13--13-13----------------------------||
|-------7-----7-----11-||-----------12pb14r(12)--10-12-(12)----||
|----------------------||--------------------------------------||
|----------------------||--------------------------------------||
|----------------------||--------------------------------------||
|
| E     E     E      E     E.        S       E       E  +H
|-0-----0-----0------0-||--------------------------------------||
|-0-----0-----0------0-||--------------------------------------||
|-1-----1-----1------1-||--2---------2---------------0--(0)----||
|-2-----2-----2------2-||--3---------3-------------------------||
|-2-----2-----2------2-||--3---------3-------------------------||
|-0-----0-----0------0-||--1---------1-------------------------||


 Verse
  C       E         A5            C/G
  W                 Q        E  e   e     E  E          e
|-----------------|-----------------------------------------|
|-----------------|----------------------20-20b22=====(20)r-|
|-----------------|------------17--19b21--------------------|
|-----------------|-----------------------------------------|
|-----------------|-----------------------------------------|
|-----------------|-----------------------------------------|
|
|                      ~~~~~~
| W                 E  Q.          +E     E  S      S   e
|-----------------|-----------------------------------------|
|-----------------|-----------------------------------------|
|-----------------|---19b21=======(19)r------------17-------|
|-----------------|------------------------------------19---|
|-----------------|-----------------------------------------|
|-----------------|-----------------------------------------|
|
| E E E E E E E E   E  E     E  E   E     E  E          E
|-----------------|-----------------------------------------|
|-----------------|-----------------------------------------|
|-----0-------1---|----------2------------------------------|
|---2---2---2-----|----2--------2------------2--------------|
|-3-------2-----2-|-0---------------------3-----------------|
|-----------------|-----------------3-------------------3---|


  F5                 G          F                           G7
                                                                 ~~~~
   S     +S   Q.     H           S     S  S  S      +S    S  E  +H
|-----------------------------|----------------------------------------|
|-----------------------------|-13----13-11--------------13------------|
|-19b21r(19)p17---------------|-------------12b14==(12)r----12-(12)----|
|-----------------------------|----------------------------------------|
|-----------------------------|----------------------------------------|
|-----------------------------|----------------------------------------|
|
|                                                                ~~~~
|  H                 H           S     S  S  S      +S    S  E  +H
|-----------------------------|----------13----------------------------|
|-----------------------------|-------13-------------------------------|
|-17--------------------------|-12b14-------12pb14r(12)--10-12-(12)----|
|-----------------------------|----------------------------------------|
|-----------------------------|----------------------------------------|
|-----------------------------|----------------------------------------|
|
|  E          E  E E E E E E     E.          S       E       E  +H
|-----------------------------|----------------------------------------|
|-----------------------------|--1-----------1---------------3--(3)----|
|-----------------------------|--2-----------2---------------4--(4)----|
|----------------3-3s5---5----|--3-----------3---------------3--(3)----|
|-------------3----3-5-5---5\-|--3-----------3-------------------------|
|--1---------------1s3--------|--1-----------1---------------3--(3)----|


  C       E         A5                      C/G
                      |-3-| |--3--| |--3--| |--3--| |-3-|
  W                 E S S S S S   S S S   S S   S S S S S S        S   E
|-----------------|---5h8p5-------------------------------------------------|
|-----------------|---------5h6p==5-----------------------------------------|
|-----------------|-----------------5h7p==5---------------------------------|
|-----------------|-------------------------5h==7p5-------------------------|
|-----------------|---------------------------------5h7p5-7--------5--------|
|-----------------|----------------------------------------------------8----|
|
| W                 Q       S   S   S   S   E       E     T    +S    T e
|-----------------|---------------------------------------------------------|
|-----------------|---------------------------------8-----------------------|
|-----------------|-----------------5-------7b9-----------7pb9r(7)p==5------|
|-----------------|---------5h==7-------7------------------------------7----|
|-----------------|---------------------------------------------------------|
|-----------------|---------------------------------------------------------|
|
| E E E E E E E E   E E     E       E       E       E     E            E
|-----------------|---------------------------------------------------------|
|-----------------|---------------------------------------------------------|
|-----0-------1---|---------2-----------------------------------------------|
|---2---2---2-----|---2-------------2---------------------2-----------------|
|-3-------2-----2-|-0-------------------------------3-----------------------|
|-----------------|-------------------------3--------------------------3----|


                        Pre-Chorus
  F5         G             A       E/G#
  +E  Q.     H              W
|---------------------||------------------|
|---------------------||------------------|
|---------------------||------------------|
|---------------------||------------------|
|---------------------||------------------|
|-(8)-8---------------||------------------|
|
|  ~~~
|  H         H           a  H      H
|---------------------||------------------|
|---------------------||-7s10-------------|
|--5------------------||------------------|
|---------------------||------------------|
|---------------------||------------------|
|---------------------||------------------|
|
|  E  E  E E E E E E        Q  E E Q  E e
|---------------------||------------------|
|---------------------||-------5---5--5-5-|
|---------------------||----6----6-4--4-4-|
|--------3-3s5---5----||----7------2--2-2-|
|-----3----3-5-5---5/-||----7------x------|
|--1-------1s3--------||----5------4------|


  F#m                               D               E                   A               E/G#
                           ~~~~~~~~~~~~~~~~~~~~~~~~~                           ~~~
                                                     |-----3-----|
  E   S     S  E           S      S  +E       S  S   S     S     S  e    E     Q.        +Q    Q
|-------------17------------------------------------17----19----17-19-|-19b21-17--------(17)---------|
|----------17-------------20b22==20-(20)-----20-20r-------------------|------------------------------|
|----19b21------------------------------------------------------------|------------------------------|
|---------------------------------------------------------------------|------------------------------|
|---------------------------------------------------------------------|------------------------------|
|---------------------------------------------------------------------|------------------------------|
|
|                                                                   ~~~~~~~~~~
| E   E        S      +S   E          E       S  S   S        S     E    H                H
|---------------------------------------------------------------------|------------------------------|
|----21b22----21pb23r(21)-17-----------------21-17--------------------|------------------------------|
|------------------------------------19b21----------19b21----17-------|-19b20------------------------|
|------------------------------------------------------------------19-|------------------------------|
|---------------------------------------------------------------------|------------------------------|
|---------------------------------------------------------------------|------------------------------|
|
| E.        S  E           S      S   S    S  S  S   S        S     E    Q        E S S   E. S E S S
|---------------------------------------------------------------------|-------------------0----------|
|-2-----------------------------------------------------------------0-|-----------2------------5-----|
|-2------------2------------------0---2----2--2---------------------1-|--2----------2-----4--4---4---|
|-4---------4--------------4----------0----0-----0---2--------2-----2-|--2------------5---2--------4-|
|-4-------------------------------------------------------------------|--0---------------------------|
|-2-------------------------------------------------------------------|-------------------4----------|


  F#m                   D            E
                          ~~~~~~~~
  E  E     E       S  S  +E     S  S  S     +S   E
|---20b22-20b21---17--------------------------------||
|--------------------21-(21)---21-17----------------||
|------------------------------------19b21r(19)-18\-||
|---------------------------------------------------||
|---------------------------------------------------||
|---------------------------------------------------||
|
| W
|---------------------------------------------------||
|---------------------------------------------------||
|---------------------------------------------------||
|---------------------------------------------------||
|---------------------------------------------------||
|---------------------------------------------------||
|
| E  E     S    S  S  S   S  S  S  S  S      S   E
|---------------------------------------------------||
|-------------------------------------0------0---0--||
|-2-----------------------2--2--2--2--1------1---1--||
|-4--------4----4--4------0--0--0--0--2------2---2--||
|-4--4----------------5-----------------------------||
|---------------------------------------------------||


 Chorus
  A           Amaj7      A7        D       D/B
   E  E  E  E  E E E E   E E E S S  E  S S E S S
|----------------------|-------------------------|
|-10-10-10-10-10-9-9-9-|-8-8-8-8s7-10-10s7-7-7s9-|
|----------------------|-------------------------|
|----------------------|-------------------------|
|----------------------|-------------------------|
|----------------------|-------------------------|
|
|  E  E  E  E  E E E E   E E E S S  E  S S E S S
|--9-----9-----9---9---|-9---9-------------------|
|----10----10----9---9-|---8---8s7-10-10s7-7-7s9-|
|----------------------|-------------------------|
|----------------------|-------------------------|
|----------------------|-------------------------|
|----------------------|-------------------------|
|
|  Q     E  E  Q   E E   Q   E E    E  E   E E
|----------------------|-------------------------|
|--2-----2--2--2---2-2-|-2---2-2-----------------|
|--2-----2--2--1---1-1-|-0---0-0----2--2---2-2---|
|--2-----2--2--2---2-2-|-2---2-2----0--0---0-0---|
|--0-----0--0--0---0-0-|-0---0-0-----------------|
|----------------------|-------------------------|


  E                      A           Amaj7      A7        D       D/B
 2/4                    4/4
  S  S  S  S  S   S  e    E  E  E  E  E E E E   E E E S S  E  S S E S S
|-------------------10-|----------------------|-------------------------|
|-9s10-10----12--------|-10-10-10-10-10-9-9-9-|-8-8-8-8s7-10-10s7-7-7s9-|
|----------------------|----------------------|-------------------------|
|---------12----/16----|----------------------|-------------------------|
|----------------------|----------------------|-------------------------|
|----------------------|----------------------|-------------------------|
|
| E     E     E      E    E  E  E  E  E E E E   E E E S S  E  S S E S S
|----------------------|--9-----9-----9---9---|-9---9-------------------|
|-9--------------------|----10----10----9---9-|---8---8s7-10-10s7-7-7s9-|
|-------7-----7-----11-|----------------------|-------------------------|
|----------------------|----------------------|-------------------------|
|----------------------|----------------------|-------------------------|
|----------------------|----------------------|-------------------------|
|
| E     E     E      E    Q     E  E  Q   E E   Q   E E    E  E   E E
|-0-----0-----0------0-|----------------------|-------------------------|
|-0-----0-----0------0-|--2-----2--2--2---2-2-|-2---2-2-----------------|
|-1-----1-----1------1-|--2-----2--2--1---1-1-|-0---0-0----2--2---2-2---|
|-2-----2-----2------2-|--2-----2--2--2---2-2-|-2---2-2----0--0---0-0---|
|-2-----2-----2------2-|--0-----0--0--0---0-0-|-0---0-0-----------------|
|-0-----0-----0------0-|----------------------|-------------------------|


  E                      F                         G7
 2/4                    4/4
  S  S  S  S  S   S  e    S   S  S  S      +S    S  E  +H
|-------------------10-|-13---------------------10--------------------||
|-9s10-10----12--------|-----13-11-----------------11-(11)------------||
|---------------/11----|-----------12b14==(12)r-----------------------||
|---------12-----------|----------------------------------------------||
|----------------------|----------------------------------------------||
|----------------------|----------------------------------------------||
|
|                                                            |--3---|
| E     E     E      E    H                             Q    e.  s  e
|----------------------|----------------------------------------------||
|-9--------------------|------------------------------------12--13-15-||
|-------7-----7-----11-|----------------------------------------------||
|----------------------|----------------------------------------------||
|----------------------|----------------------------------------------||
|----------------------|----------------------------------------------||
|
| E     E     E      E    E.        S       E       E  +H
|-0-----0-----0------0-|----------------------------------------------||
|-0-----0-----0------0-|--1---------1---------------3--(3)------------||
|-1-----1-----1------1-|--2---------2---------------4--(4)------------||
|-2-----2-----2------2-|--3---------3---------------3--(3)------------||
|-2-----2-----2------2-|--3---------3---------------------------------||
|-0-----0-----0------0-|--1---------1---------------3--(3)------------||


 Guitar Solo
  C                    E
   W
|------------------------------------------------|
|------------------------------------------------|
|------------------------------------------------|
|------------------------------------------------|
|------------------------------------------------|
|------------------------------------------------|
|
|          ~~~~~~~~~~~
|  S      +E.    +Q     +E   S  S      +E   +E
|------------------------------15b17==(15)r(15)--|
|-15b17==(15)---(15)r==(15)-13-------------------|
|------------------------------------------------|
|------------------------------------------------|
|------------------------------------------------|
|------------------------------------------------|
|
|  E          E   E  E   E   E          E    E
|------------------------------------------------|
|------------------------------------------------|
|-----------------0---------------------1--------|
|-------------2------2-------2-------------------|
|--3---------------------2-------------------2---|
|------------------------------------------------|


  A5                 C/G                  F5                             G
  Gtr II
              ~~~
   S     +S   Q.      +Q     S  E.         +E   +S  S  S      +S   e   a  S  S  a  S  S  S  S  S   S
|------------------------------15b17====|=(15)r(15)--------------------------------------------------|
|-15b17r(15)-13------(13)---------------|-------------15pb17r(15)-13---------------------------------|
|---------------------------12----------|-----------------------------12h14-12-----------------------|
|---------------------------------------|--------------------------------------14p12S10-12-10--------|
|---------------------------------------|-----------------------------------------------------12p=10-|
|---------------------------------------|------------------------------------------------------------|
|
| Gtr I
|  E          E  E E   E  E  E        E     E    E     E           E      E        E     E     E
|---------------------------------------|------------------------------------------------------------|
|---------------------------------------|------------------------------------------------------------|
|----------------2----------------------|------------------------------------------------------------|
|-------------2----2---------2----------|--------------3----------(3)s====5--------------5-----------|
|--0----------------------3-------------|--------3-----------------3------5--------5-----------5\----|
|----------------------3--------------3-|---1----------------------1s=====3--------------------------|


  F                     G7
                         ~~
   S     +S   S  S S  S  E  +E    S  S  S  S  S S
|--------------------------------------------------|
|-----------------------------------------13-------|
|-----------------------------------12h14----14----|
|-12b13r(12)p10------10-12-(12)-/14----------------|
|---------------12---------------------------------|
|--------------------------------------------------|
|
|  E.            S E     E  +H
|--------------------------------------------------|
|--1-------------1-------3--(3)--------------------|
|--2-------------2-------4--(4)--------------------|
|--3-------------3-------3--(3)--------------------|
|--3-------------3---------------------------------|
|--1-------------1-------3--(3)--------------------|


  C                             E
~~~~~~~~~~~~~~~~~~~~~~~~~~~~~~~~~~~~~~~~~~~~~~~~~~~~~~~~~~~~~~~~
   E     +E      +E      +E      +E      E      +S   +S   S  S
|--------------------------------------------------------------|
|-15b17r(15)b17r(15)b17r(15)b17r(15)b17r15b17==(15)r(15)-13-15-|
|--------------------------------------------------------------|
|--------------------------------------------------------------|
|--------------------------------------------------------------|
|--------------------------------------------------------------|
|
|  E      E       E       E       E      E       E        E
|--------------------------------------------------------------|
|--------------------------------------------------------------|
|-----------------0------------------------------1-------------|
|---------2---------------2--------------2---------------------|
|--3------------------------------2-----------------------2----|
|--------------------------------------------------------------|


  A5            C/G                        F5                G
 ~~~~~~~~~~~~~~~~~~~~~~~~~~~~~~~~~~~~~~~~~~~~~~~~~~~~~~~~~~~~~~~~~~
   E  E  E    E E  E     S  S  S     +S     E  E  S  S  S  S  E  E  +S   S  E
|-----------------15b17-15-13------------|--------------------------------------||
|-13-13-15b17-----------------15b17r(15)-|-13-13-13-15-13----15-15-(15)-15------||
|----------------------------------------|---------------------------------14---||
|----------------------------------------|--------------------------------------||
|----------------------------------------|--------------------------------------||
|----------------------------------------|--------------------------------------||
|
|  E  E  E    E E  E     E     E            E  E  E     E     E  E   E      E
|----------------------------------------|--------------------------------------||
|----------------------------------------|--------------------------------------||
|--------2-------------------------------|--------------------------------------||
|-----2-------2----------2---------------|--------3----(3)s===5------5----------||
|--0---------------3---------------------|-----3--------3-----5--5----------5/--||
|---------------3--------------3---------|--1-----------1s====3-----------------||


                              Pre-Chorus
  A          E/G#              F#m           D            E
     ~                         ~~~~~
   E E E S S S S S S S S S S   Q.        E   S +S  S S    +S  S E
|----9-----------------------|------------------------------------|
|----------------------------|-8b10======8---8r(8)-5--------------|
|-/9---9-9-9-9s7-7s6-7p6-----|-----------------------7pb9r(7)p6---|
|------------------------9-7-|----------------------------------7-|
|----------------------------|------------------------------------|
|----------------------------|------------------------------------|
|
|  Q   E E   Q       E   e     E.    S E S S S  S  S S     S  S E
|----------------------------|------------------------------------|
|------5-----5-------5---5---|-2--------------------------------0-|
|--6-----6---4-------4---4---|-2-------2---0-2--2--2------------1-|
|--7---------2-------2---2---|-4-----4---4---0--0----0-----2--2-2-|
|--7---------x---------------|-4----------------------------------|
|--5---------4---------------|-2----------------------------------|


  A                         E/G#
      ~~    ~~                   ~~
   S  S  S  S  +E   S  S  a  E   E    S      +S   S  S
|-------------------------------------------------------|
|-12s14-14-14-(14)-14-15-15s17--17----------------------|
|------------------------------------16pb17r(16)-14-----|
|---------------------------------------------------16--|
|-------------------------------------------------------|
|-------------------------------------------------------|
|
|  Q            E   S  S     E.    S  E           S  S
|----------------------------0--------------------------|
|---------------2---------------------5-----------------|
|--2----------------2--------4-----4--------------4-----|
|--2-------------------5-----2-----------------------4--|
|--0----------------------------------------------------|
|----------------------------4--------------------------|


  F#m                  D       E
  Gtr III
   W
|----------------------------------||
|----------------------------------||
|----------------------------------||
|----------------------------------||
|----------------------------------||
|----------------------------------||
|
| Gtr II
|  ~~~~~~~~~~~~~
|  E  E  E    E   S  S S S S S S S
|----------------------------------||
|----------------------------------||
|-14-14-14---14--------------------||
|----------------------7-6-9p7-----||
|-------------------/9---------9p7-||
|----------------------------------||
|
| Gtr I
|  E  E  S S  S S S  S S S S S E
|----------------------------------||
|--------------------------0-0-0---||
|--2--------------2--2-2-2-1-1-1---||
|--4-----4-4--4---0--0-0-0-2-2-2---||
|--4--4---------5------------------||
|----------------------------------||


 Chorus
  A           Amaj7      A7        D       D/B
   E  E  E  E  E E E E   E E E S S  E  S S E S S
|----------------------|--------------------------|
|-10-10-10-10-10-9-9-9-|-8-8-8-8s7-10-10s7-7-7s9--|
|----------------------|--------------------------|
|----------------------|--------------------------|
|----------------------|--------------------------|
|----------------------|--------------------------|
|
|  E  E  E  E  E E E E   E E E S S  E  S S E S S
|--9-----9-----9---9---|-9---9--------------------|
|----10----10----9---9-|---8---8s7-10-10s7-7-7s9--|
|----------------------|--------------------------|
|----------------------|--------------------------|
|----------------------|--------------------------|
|----------------------|--------------------------|
|
|  Q     E  E  Q   E E   Q   E E    E  E   E E
|----------------------|--------------------------|
|--2-----2--2--2---2-2-|-2---2-2------------------|
|--2-----2--2--1---1-1-|-0---0-0----2--2---2-2----|
|--2-----2--2--2---2-2-|-2---2-2----0--0---0-0----|
|--0-----0--0--0---0-0-|-0---0-0------------------|
|----------------------|--------------------------|


  E                      A           Amaj7
 2/4                    4/4
  S  S  S  S  S   S  e    E  E  E  E  E E E E
|-------------------10-|----------------------|
|-9s10-10----12--------|-10-10-10-10-10-9-9-9-|
|---------------/11----|----------------------|
|---------12-----------|----------------------|
|----------------------|----------------------|
|----------------------|----------------------|
|
| E     E     E      E    E  E  E  E  E E E E
|----------------------|--9-----9-----9---9---|
|-9--------------------|----10----10----9---9-|
|-------7-----7-----11-|----------------------|
|----------------------|----------------------|
|----------------------|----------------------|
|----------------------|----------------------|
|
| E     E     E      E    Q     E  E  Q   E E
|-0-----0-----0------0-|----------------------|
|-0-----0-----0------0-|--2-----2--2--2---2-2-|
|-1-----1-----1------1-|--2-----2--2--1---1-1-|
|-2-----2-----2------2-|--2-----2--2--2---2-2-|
|-2-----2-----2------2-|--0-----0--0--0---0-0-|
|-0-----0-----0------0-|----------------------|


  A7        D       D/B     E
                           2/4
  E E E S S  E  S S E S S   S  S  S  S  S   S  e
|-------------------------|-------------------10--|
|-8-8-8-8s7-10-10s7-7-7s9-|-9s10-10----12---------|
|-------------------------|-----------------------|
|-------------------------|---------12----/16-----|
|-------------------------|-----------------------|
|-------------------------|-----------------------|
|
| E E E S S  E  S S E S S   E     E     E      E
|-9---9-------------------|-----------------------|
|---8---8s7-10-10s7-7-7s9-|-9---------------------|
|-------------------------|-------7-----7-----11--|
|-------------------------|-----------------------|
|-------------------------|-----------------------|
|-------------------------|-----------------------|
|
| Q   E E    E  E   E E     E     E     E      E
|-------------------------|-0-----0-----0------0--|
|-2---2-2-----------------|-0-----0-----0------0--|
|-0---0-0----2--2---2-2---|-1-----1-----1------1--|
|-2---2-2----0--0---0-0---|-2-----2-----2------2--|
|-0---0-0-----------------|-2-----2-----2------2--|
|-------------------------|-0-----0-----0------0--|


                                          Verse
  F                           G7           C       E
 4/4
                                   ~~~~
   S     S  S  S      +S    S  E  +H       W
|----------------------------------------|----------------------|
|-13----13-11--------------13------------|----------------------|
|-------------12b14==(12)r----12-(12)----|----------------------|
|----------------------------------------|----------------------|
|----------------------------------------|----------------------|
|----------------------------------------|----------------------|
|
|                                  ~~~~
|  S     S  S  S      +S    S  E  +H       H       Q   E  E
|----------13----------------------------|---------------15b17==|
|-------13-------------------------------|----------------------|
|-12b14-------12pb14r(12)--10-12-(12)----|----------------------|
|----------------------------------------|----------------------|
|----------------------------------------|----------------------|
|----------------------------------------|----------------------|
|
|  E.          S       E       E  +H       E E E E E E E  E
|----------------------------------------|----------------------|
|--1-----------1---------------3--(3)----|----------------------|
|--2-----------2---------------4--(4)----|-----0-------1--------|
|--3-----------3---------------3--(3)----|---2---2---2----------|
|--3-----------3-------------------------|-3-------2------2-----|
|--1-----------1---------------3--(3)----|----------------------|


  A5                   C/G                             F5       G
                        ~~~~~                           ~~
    E    Q           e  E     E  a       S   S  S  S    H       H
|-------------------15-------15----------------------|--------------------|
|-------15b17----------15b17----15pb17r(15)-13-14-14-|-13-----------------|
|----------------------------------------------------|--------------------|
|----------------------------------------------------|--------------------|
|----------------------------------------------------|--------------------|
|----------------------------------------------------|--------------------|
|
|                       ~~~~~                           ~~
|  +E    E     E     E  Q        a       E      S  S    H       H
|-(15)r-15----------15-------------------------------|--------------------|
|-------------15b17----15b17----15pb17r(15)----14-14-|-13-----------------|
|----------------------------------------------------|--------------------|
|----------------------------------------------------|--------------------|
|----------------------------------------------------|--------------------|
|----------------------------------------------------|--------------------|
|
|   E    E     E     E  E     E          E      E       E E E E E E E E
|----------------------------------------------------|--------------------|
|----------------------------------------------------|--------------------|
|--------------2-------------------------------------|--------------------|
|--------2-----------2-------------------2-----------|------3-3s5---5-----|
|---0-------------------------3----------------------|----3---3-5-5---5\--|
|-----------------------3-----------------------3----|--1-----1s3---------|


  F                           G7                        C       E
   S     S  S  S      +S    S  E      +H                W
|----------13-----------------------------------------|-----------------|
|-------13-----------------13-------------------------|-----------------|
|-12b14-------12b14==(12)r----12b14==(12)r------------|-----------------|
|-----------------------------------------------------|-----------------|
|-----------------------------------------------------|-----------------|
|-----------------------------------------------------|-----------------|
|
|                                                       ~
|  S     S  S  S      +S    S  E      +E   E  S  S  E   H       H
|----------13-----------------------------------------|-----------------|
|-------13-----------------13-------------------------|-----------------|
|-12b14-------12b14==(12)r----12b14==(12)r---10h12p10-|-9---------------|
|-----------------------------------------------------|-----------------|
|-----------------------------------------------------|-----------------|
|-----------------------------------------------------|-----------------|
|
|  E.          S       E       E      +H                E E E E E E E E
|-----------------------------------------------------|-----------------|
|--1-----------1---------------3------(3)-------------|-----------------|
|--2-----------2---------------4------(4)-------------|-----0-------1---|
|--3-----------3---------------3------(3)-------------|---2---2---2-----|
|--3-----------3--------------------------------------|-3-------2-----2-|
|--1-----------1---------------3------(3)-------------|-----------------|


  A5           C/G                    F5       G
       ~~~~~~
  Q    Q        +Q     E  S     +S     W
|-----15b17====(15)r----------------|-----------------------|
|-----------------------------------|-----------------------|
|------------------------15b17r(15)-|-13--------------------|
|-----------------------------------|-----------------------|
|-----------------------------------|-----------------------|
|-----------------------------------|-----------------------|
|
| W                                    H       Q   E a E
|-----------------------------------|-----------------------|
|-----------------------------------|-----------------------|
|-----------------------------------|----------------7s9----|
|-----------------------------------|-----------------------|
|-----------------------------------|-----------------------|
|-----------------------------------|-----------------------|
|
| E E  E     E   E   E E  E            E E E E E E E   E
|-----------------------------------|-----------------------|
|-----------------------------------|-----------------------|
|------2----------------------------|-----------------------|
|---2--------2---------2------------|------3-3s5---5--------|
|-0------------------3--------------|----3---3-5-5-----5/---|
|----------------3--------3---------|--1-----1s3------------|


 Pre-Chorus
    A       E/G#     F#m                             D                E
                                                                       ~~~~~~~~~~~~~
     W                E        E        E     E       E       S     S  E          E
|------------------|-16-------16-------16----16------16------16----17-17---------17----|
|------------------|-15b17----15b17----15b17-15b17---15b17---15------------------------|
|------------------|-------------------------------------------------------------------|
|------------------|-------------------------------------------------------------------|
|------------------|-------------------------------------------------------------------|
|------------------|-------------------------------------------------------------------|
|
|    ~~
|                                                                      |---3---|
| a  H      H         S     S  S     S  E     E       E       E        S  S    S  S  S
|------------------|----------------17-19b21-19b21---19b22---19b21----17h19p==17-------|
|-8s10-------------|-------17-19-------------------------------------------------20-17-|
|------------------|-------------------------------------------------------------------|
|------------------|-------------------------------------------------------------------|
|------------------|-------------------------------------------------------------------|
|------------------|-------------------------------------------------------------------|
|
|    Q  E E Q  E e    E.             S  E     S    S  S    S  S     S  S    S     E
|------------------|-------------------------------------------------------------------|
|-------5---5--5-5-|--2-----------------------------------------------------------0----|
|----6----6-4--4-4-|--2-----------------2----------0--2----2--2-------------------1----|
|----7------2--2-2-|--4--------------4--------4-------0----0--------0--2----2-----2----|
|----7------x------|--4----------------------------------------------------------------|
|----5------4------|--2----------------------------------------------------------------|


  A            E/G#
   H           H
|-15b17-------------------|
|-------------------------|
|-------------------------|
|-------------------------|
|-------------------------|
|-------------------------|
|
|  H           H
|-15b17-------------------|
|-------------------------|
|-------------------------|
|-------------------------|
|-------------------------|
|-------------------------|
|
|  Q     E S S E. S E S S
|--------------0----------|
|--------2----------5-----|
|--2-------2---4--4---4---|
|--2---------5-2--------4-|
|--0----------------------|
|--------------4----------|


  F#m                                                    D                        E
  S  S  E           S        S         S        S         S        S         S  S  S     S  E
|------20b22-------20b22----20pb21----20b22----20pb21----20b22----20pb21----17--------------------|
|---17-------------------------------------------------------------------------20-20b22-20-20b22\-|
|-------------------------------------------------------------------------------------------------|
|-------------------------------------------------------------------------------------------------|
|-------------------------------------------------------------------------------------------------|
|-------------------------------------------------------------------------------------------------|
|
|       |---3----|  |-------3-------|  |-------3-------|  |-------3-------|
| E     S     S  S  S     S         S  S     S         S  S     S         S  S  S  S     S  E
|------17h===19p17--------------------17h===19p=======17--------------------17--------------------|
|------------------17h===19p=======17--------------------17h===19p=======17----21-20b22-20-20b22\-|
|-------------------------------------------------------------------------------------------------|
|-------------------------------------------------------------------------------------------------|
|-------------------------------------------------------------------------------------------------|
|-------------------------------------------------------------------------------------------------|
|
| E     E           S        S         S        S         S        S         S  S  S     S  E
|-------------------------------------------------------------------------------------------------|
|----------------------------------------------------------------------------------0-----0--0-----|
|-2-------------------------------------------------------2--------2---------2--2--1-----1--1-----|
|-4-----------------4--------4---------4------------------0--------0---------0--0--2-----2--2-----|
|-4-----4---------------------------------------5-------------------------------------------------|
|-------------------------------------------------------------------------------------------------|


    A           Amaj7      A7        D       D/B
     E  E  E  E  E E E E   E E E S S  E  S S E S S
||-----------------------|-------------------------|
||o-10-10-10-10-10-9-9-9-|-8-8-8-8s7-10-10s7-7-7s9-|
||-----------------------|-------------------------|
||-----------------------|-------------------------|
||o----------------------|-------------------------|
||-----------------------|-------------------------|
|
|    E  E  E  E  E E E E   E E E S S  E  S S E S S
||---9-----9-----9---9---|-9---9-------------------|
||o----10----10----9---9-|---8---8s7-10-10s7-7-7s9-|
||-----------------------|-------------------------|
||-----------------------|-------------------------|
||o----------------------|-------------------------|
||-----------------------|-------------------------|
|
|    Q     E  E  Q   E E   Q   E E    E  E   E E
||-----------------------|-------------------------|
||o--2-----2--2--2---2-2-|-2---2-2-----------------|
||---2-----2--2--1---1-1-|-0---0-0----2--2---2-2---|
||---2-----2--2--2---2-2-|-2---2-2----0--0---0-0---|
||o--0-----0--0--0---0-0-|-0---0-0-----------------|
||-----------------------|-------------------------|


  E                      A           Amaj7      A7        D       D/B
 2/4                    4/4
  S  S  S  S  S   S  e    E  E  E  E  E E E E   E E E S S  E  S S E S S
|-------------------10-|----------------------|-------------------------|
|-9s10-10----12--------|-10-10-10-10-10-9-9-9-|-8-8-8-8s7-10-10s7-7-7s9-|
|---------------/11----|----------------------|-------------------------|
|---------12-----------|----------------------|-------------------------|
|----------------------|----------------------|-------------------------|
|----------------------|----------------------|-------------------------|
|
| E     E     E      E    E  E  E  E  E E E E   E E E S S  E  S S E S S
|----------------------|--9-----9-----9---9---|-9---9-------------------|
|-9--------------------|----10----10----9---9-|---8---8s7-10-10s7-7-7s9-|
|-------7-----7-----11-|----------------------|-------------------------|
|----------------------|----------------------|-------------------------|
|----------------------|----------------------|-------------------------|
|----------------------|----------------------|-------------------------|
|
| E     E     E      E    Q     E  E  Q   E E   Q   E E    E  E   E E
|-0-----0-----0------0-|----------------------|-------------------------|
|-0-----0-----0------0-|--2-----2--2--2---2-2-|-2---2-2-----------------|
|-1-----1-----1------1-|--2-----2--2--1---1-1-|-0---0-0----2--2---2-2---|
|-2-----2-----2------2-|--2-----2--2--2---2-2-|-2---2-2----0--0---0-0---|
|-2-----2-----2------2-|--0-----0--0--0---0-0-|-0---0-0-----------------|
|-0-----0-----0------0-|----------------------|-------------------------|


  E                        F                                G7
 2/4                      4/4
                                                                  ~~
  S  S  S  S  S   S  e  3x  S     S  S  S      S   S  a       E   H
|-------------------10--||-13------------------------------------------*|
|-9s10-10----12--------o||-------13-11------------13-------------------*|
|---------------/11-----||-------------12-----12-----------------------*|
|---------12------------||---------------------------12pb14r(12)-12----*|
|----------------------o||---------------------------------------------*|
|-----------------------||---------------------------------------------*|
|
|                                                                 ~~
| E     E     E      E  3x  E        S  S      S   S          E   H
|-----------------------||---------------------------------------------*|
|-9--------------------o||----------13---------------------------------*|
|-------7-----7-----11--||-12b14-------12b14r(12)-10---------12--12----*|
|-----------------------||---------------------------------------------*|
|----------------------o||---------------------------------------------*|
|-----------------------||---------------------------------------------*|
|
| E     E     E      E  3x  E.          S      E              E   H
|-0-----0-----0------0--||---------------------------------------------*|
|-0-----0-----0------0-o||--1-----------1---------------------3---3----*|
|-1-----1-----1------1--||--2-----------2---------------------2---2----*|
|-2-----2-----2------2--||--3-----------3---------------------3---3----*|
|-2-----2-----2------2-o||--3-----------3------------------------------*|
|-0-----0-----0------0--||--1-----------1---------------------3---3----*|




--------------------------------------------------------------------------------


Duration Legend
---------------
W - whole; H - half; Q - quarter; E - 8th; S - 16th; T - 32nd; X - 64th; a - acciaccatura
+ - note tied to previous; . - note dotted; .. - note double dotted
Uncapitalized letters represent notes that are staccato (1/2 duration)
Irregular groupings are notated above the duration line
Duration letters will always appear directly above the note/fret number it represents the
duration for.  Duration letters with no fret number below them represent rests.  Multi-
bar rests are notated in the form Wxn, where n is the number of bars to rest for.  Low
melody durations appear below the staff

Tablature Legend
----------------
 h   - hammer-on
 p   - pull-off
 b   - bend
 pb  - pre-bend
 r   - bend release (if no number after the r, then release immediately)
 /\  - slide into or out of (from/to "nowhere")
 s   - legato slide
 S   - shift slide
<n> - natural harmonic
[n]  - artificial harmonic
n(n) - tapped harmonic
 ~   - vibrato
 tr  - trill
 T   - tap
 TP  - trem. picking
 PM  - palm muting
\n/  - tremolo bar dip; n = amount to dip
 \n  - tremolo bar down
 n/  - tremolo bar up
/n\  - tremolo bar inverted dip
 =   - hold bend; also acts as connecting device for hammers/pulls
 <> - volume swell (louder/softer)
 x   - on rhythm slash represents muted slash
 o   - on rhythm slash represents single note slash

Misc Legend
-----------
 |  - bar
||  - double bar
||o - repeat start
o|| - repeat end
*|  - double bar (ending)
 :  - bar (freetime)
 $  - Segno
 &  - Coda
Tempo markers - <E/E./Q/Q./H/H.> = BPM(8/16=s8/s16), where s8 = swing 8ths, s16 = swing 16ths
comments
print report bad tab
5 comments total. Showing first comments.
0 reply
SpiderFromMars wrote on December 13 2007, 10:51 pm

Pretty good tab, but one nitpick: Duane Allman doesn't appear on this track at all, and I don't think Whitlock plays any
guitar on it (though I think he provides back-up vocals). According to the engineering records, all the guitar parts are
done by Clapton via overdubbing. In fact, Allman doesn't appear at all on this album until track #4.

Just wanted to
clear that up. :)

0 reply
Teapole wrote on April 9 2008, 07:40 pm

Nice tab! I agree with SpiderFromMars and want to tell you that you did a great job on this and your time wasn't wasted =).

Eric Clapton Fan, Teapole

0 reply
The_lizard_king wrote on July 31 2008, 03:04 pm

SpiderfromMars is correct about Duane allman. Good tab I will try it out later.

I want to post or [tab]
guest
You may want to rate the tab now too:
select rating
Please do not post tabs as comments. Select "correction" instead!