Oops, an error
Loading. Please wait.

Layla Tab

ver3
ver3

Intro

Solo

Whole song

More versions @911Tabs.com
342 views 15 this week
no commentswrite comment
1 2 3 4 5
please rate
Autoscroll
+/-
esc
set tempo
stop
Difficulty
advanced
WARNING: You are trying to view
                                    content from Ultimate-Guitar.com
                                    in an unauthorized application,
                                    which is prohibited.

                                    Please use an official Ultimate
                                    Guitar Tabs application for iPhone,
                                    iPad or Android to access legitimate
                                    chords, guitar, bass, and drum tabs
                                    from Ultimate-Guitar.com database.

                                    Type "ultimate guitar tabs" in Apple
                                    App Store's or Android Market's
                                    search to find the application.
LAYLA

As recorded by Derek And The Dominos

(From the 1970 Album LAYLA AND OTHER ASSORTED LOVE SONGS)

Tablature (Tab) for Guitar

Transcribed by D. Bronzi

Words and Music by Eric Clapton and Jim Gordon



Gtr I (E A D G B E) - 'Untitled'

 Gtr II (E A D G B E) - 'Untitled'

 Gtr III (E A D G B E) - 'Untitled'

 Gtr IV (E A D G B E) - 'Untitled'




 Intro
  Q=116
         N.C.               D5C5Bb5F/A C5
 4/4
       Gtr I
  H    E S  S S  S S  S   W
|-----------------------|----------------|
|-----------------------|----------------|
|-----------------------|----------------|
|-------------0h=3p0----|-0--------------|
|--------0h=3---------3-|----------------|
|-----------------------|----------------|
|
|      Gtr II
| H    E S  S S  S S  S   W
|-----------------------|----------------|
|-----------------------|----------------|
|-------------7h10p7----|-7--------------|
|--------7h10--------10-|----------------|
|-----------------------|----------------|
|-----------------------|----------------|
|
|      Gtr III
| H    E S  S S  S S  S   E E E Q  E E E
|-----------------------|----------------|
|-----------------------|----------------|
|-----------------------|----------------|
|-------------0h=3p0----|-0-7s5-3--3---5-|
|--------0h=3---------3-|---5s3-1--0---3-|
|-----------------------|------------3---|


      A7  D5    N.C.               D5C5Bb5F/A C5
  +H        +E  S  S S  S S  S   W
|------------------------------|-----------------|
|------------------------------|-----------------|
|------------------------------|-----------------|
|-(0)-------(0)------0h=3p0----|-0---------------|
|---------------0h=3---------3-|-----------------|
|------------------------------|-----------------|
|
| +H        +E  S  S S  S S  S   W
|------------------------------|-----------------|
|------------------------------|-----------------|
|-(7)-------(7)------7h10p7----|-7---------------|
|---------------7h10--------10-|-----------------|
|------------------------------|-----------------|
|------------------------------|-----------------|
|
| +E  E E Q     S  S S  S S  S   E E E Q  E E E
|------------------------------|-----------------|
|------------------------------|-----------------|
|------------------------------|-----------------|
|-(5)-5---7----------0h=3p0----|-0-7s5-3--3---5--|
|-(3)-0---5-----0h=3---------3-|---5s3-1--0---3--|
|-------3----------------------|------------3----|


      A7  D5    N.C.                    D5C5Bb5    F/A  C5
  +H        +E   S  S  S  S  S  S    Q.      Q      Q    E
|---------------------10h13p10----|-10------13b15--13---12-|
|---------------10h13----------13-|------------------------|
|---------------------------------|------------------------|
|-(0)-------(0)-------------------|------------------------|
|---------------------------------|------------------------|
|---------------------------------|------------------------|
|
| +H        +E   S  S  S  S  S  S    W
|---------------------------------|------------------------|
|---------------------------------|------------------------|
|-(7)-------(7)--------7h10p=7----|--7---------------------|
|----------------7h10----------10-|------------------------|
|---------------------------------|------------------------|
|---------------------------------|------------------------|
|
| +E  E E Q      S  S  S  S  S  S    E  E E  Q      E E  E
|---------------------------------|------------------------|
|---------------------------------|------------------------|
|---------------------------------|------------------------|
|-(5)-5---7------------0h=3p=0----|--0--7s5--3------3----5-|
|-(3)-0---5------0h=3-----------3-|-----5s3--1------0----3-|
|-------3-------------------------|-------------------3----|


       A7   D5     N.C.                    D5C5Bb5    F/A  C5
   +E   Q    Q      S  S  S  S  S  S    Q.      Q      Q    E
|-(12)------10-----------10h13p10----|-10------15b17--15---12-|
|------13----------10h13----------13-|------------------------|
|------------------------------------|------------------------|
|------------------------------------|------------------------|
|------------------------------------|------------------------|
|------------------------------------|------------------------|
|
|  +H          +E   S  S  S  S  S  S    W
|------------------------------------|------------------------|
|------------------------------------|------------------------|
|--(7)---------(7)--------7h10p=7----|--7---------------------|
|-------------------7h10----------10-|------------------------|
|------------------------------------|------------------------|
|------------------------------------|------------------------|
|
|  +E   E E  Q      S  S  S  S  S  S    E  E E  Q      E E  E
|------------------------------------|------------------------|
|------------------------------------|------------------------|
|------------------------------------|------------------------|
|--(5)--5----7------------0h=3p=0----|--0--7s5--3------3----5-|
|--(3)--0----5------0h=3-----------3-|-----5s3--1------0----3-|
|---------3--------------------------|-------------------3----|


       A7   D5     N.C.                    D5C5       F/A  C5
   +E   Q    Q      S  S  S  S  S  S    Q.      Q      Q    E
|-(12)------10-----------10h13p10----|-10------13b15--13---12-|
|------13----------10h13----------13-|------------------------|
|------------------------------------|------------------------|
|------------------------------------|------------------------|
|------------------------------------|------------------------|
|------------------------------------|------------------------|
|
|  +H          +E   S  S  S  S  S  S    W
|------------------------------------|------------------------|
|------------------------------------|------------------------|
|--(7)---------(7)--------7h10p=7----|--7---------------------|
|-------------------7h10----------10-|------------------------|
|------------------------------------|------------------------|
|------------------------------------|------------------------|
|
|  +E   E E  Q      S  S  S  S  S  S    E  E E  Q      E E  E
|------------------------------------|------------------------|
|------------------------------------|------------------------|
|------------------------------------|------------------------|
|--(5)--5----7------------0h=3p=0----|--0--7s5--3------3----5-|
|--(3)--0----5------0h=3-----------3-|-----5s3--1------0----3-|
|---------3--------------------------|-------------------3----|


       A7   D5     N.C.                    D5C5Bb5    F/A  C5        A7
                                                               2/4
   +E   Q    Q      S  S  S  S  S  S    Q.      Q      Q    E    +E   Q    E
|-(12)------10-----------10h13p10----|-10------15b17--15---12-|-(12)----------------||
|------13----------10h13----------13-|------------------------|------13---13b15=====||
|------------------------------------|------------------------|---------------------||
|------------------------------------|------------------------|---------------------||
|------------------------------------|------------------------|---------------------||
|------------------------------------|------------------------|---------------------||
|
|  +H          +E   S  S  S  S  S  S    W                        +H
|------------------------------------|------------------------|---------------------||
|------------------------------------|------------------------|---------------------||
|--(7)---------(7)--------7h10p=7----|--7---------------------|--(7)----------------||
|-------------------7h10----------10-|------------------------|---------------------||
|------------------------------------|------------------------|---------------------||
|------------------------------------|------------------------|---------------------||
|
|  +E   E E  Q      S  S  S  S  S  S    E  E E  Q      E E  E    +E   E Q
|------------------------------------|------------------------|---------------------||
|------------------------------------|------------------------|---------------------||
|------------------------------------|------------------------|---------------------||
|--(5)--5----7------------0h=3p=0----|--0--7s5--3------3----5-|--(5)--5-------------||
|--(3)--0----5------0h=3-----------3-|-----5s3--1------0----3-|--(3)--0-------------||
|---------3--------------------------|-------------------3----|---------3-----------||


 Verse
  C#m                                 G#m
 4/4
  Gtr I
                                       ~~~~~
   +H         +Q        E     +S  S    H.                 E     S S
|-----------------------------------|-------------------------------|
|-(13)-------(13)r-----12b14r(12)p9-|-11b12--------------11b12r11p9-|
|-----------------------------------|-------------------------------|
|-----------------------------------|-------------------------------|
|-----------------------------------|-------------------------------|
|-----------------------------------|-------------------------------|
|
| Gtr III
|   e  E e E   e   S S  e      S  S    e    E E. S e S S  e     S S
|-----------------------------------|-------------------------------|
|---5----5-----5--------------------|-------------------------------|
|---4----4-----4------------------4-|---------4--4-4------4-------4-|
|---6----6-----6--------6---------4-|---------4--4-4---4--4-------4-|
|---4----4-----4---4-4--4---------6-|-------6-6--6-6-6----6-----6---|
|-----------------------------------|--4----4-----------------------|


  C#m7               C7        D7       E7
                     ~~~~~~
   Q       E     +S  S +Q       Q        Q        S   E  +S  E    E   E S   S
|-------------------------------------|----------12-(12)-----------------------|
|-------------------------------------|----------12-(12)-----------------------|
|-11b13---11b13r(11)p9-(9)-----11-----|-11b13========11r(11)p9---11---9--------|
|-------------------------------------|---------------------------------9h=11--|
|-------------------------------------|----------------------------------------|
|-------------------------------------|----------------------------------------|
|
|  e    E  e      E     S  S E  S S E    E     E  Q          S E    S E E
|-------------------------------------|----------------------------------------|
|--5-------5------------5--5-5--7-7-7-|-----------9----------9-9----9-9--------|
|--4-------4------------3--3-3--5-5-5-|-----------7----------7-7----7-7--------|
|--6-------6------------5--5-5--7-7-7-|--------9--9----------9-9----9-9-9\-----|
|-------4---------4-----3--3-3--5-5-5-|--7-----7-------------------------------|
|-------------------------------------|----------------------------------------|


  F#m           B                 E              A
  E E S  S  E   S S  E   E    E    E      E    S  +S   +S  S S  E  +Q         S
|-------------------------------|-----------------------------------------------|
|-----9-------------------------|--------12-------------------------------------|
|-9-9---11------9-9------9---11-|-11b13=======11r(11)-(11)-9--------------------|
|----------11-------11----------|----------------------------9h11-(11)-------11-|
|-------------------------------|-----------------------------------------------|
|-------------------------------|-----------------------------------------------|
|
| E E S  S  S S S S  S S S S  E    E      S S  S   S    S  S E.     S  S S E
|-----4p=2----------------------|--------------2p==0----------------------------|
|-----2-----2----------4--------|---------0-0-----------0--0--------------------|
|---2---------2--------4--------|---------1-1-----------1--1--------------------|
|-4------------------4---6p4----|---------2-2-----------2--2-2------2--4p2------|
|---------------4S6-----------6-|----------------------------0-------------4----|
|-------------------------------|--0--------------------------------------------|


  F#m              B                          E
                                             2/4
                                              ~
  S  S S S  S S  S S  E     +E     S S  E     H
|-------------------------------------------|-----------||
|-------------------------------------------|-----------||
|------9-9h11p9----9-11b13r(11)---11-9------|-9---------||
|-9h11----------11---------------------11---|-----------||
|-------------------------------------------|-----------||
|-------------------------------------------|-----------||
|
| E    E    S s  E    E      S  S  S S  S S   E S S Q
|-----------2-2-----------------------------|-----------||
|-----------2-2-----------------------------|-----------||
|-----------2-2--------------------4-4----x-|-1---1-1---||
|------4------------------------4--4-4----x-|-2-x-2-2---||
|---------------------2------2-----2----2---|-2-x-2-2---||
|-2-----------------------------------------|-0-----0---||


 Chorus
  N.C.                        D5C5Bb5    F/A  C5
 2/4                     4/4
  Gtr I
  +E   S  S  S  S  S  S    Q.      Q      Q    E
|-----------10h13p10----|-10------13b15--13---12-|
|-----10h13----------13-|------------------------|
|-(9)-------------------|------------------------|
|-----------------------|------------------------|
|-----------------------|------------------------|
|-----------------------|------------------------|
|
| Gtr II
|  E   S  S  S  S  S  S    W
|-----------------------|------------------------|
|-----------------------|------------------------|
|------------7h10p=7----|--7---------------------|
|------7h10----------10-|------------------------|
|-----------------------|------------------------|
|-----------------------|------------------------|
|
| Gtr III
|  E   S  S  S  S  S  S    E  E E  Q      E E  E
|-----------------------|------------------------|
|-----------------------|------------------------|
|-----------------------|------------------------|
|------------0h=3p=0----|--0--7s5--3------3----5-|
|--0---0h=3-----------3-|-----5s3--1------0----3-|
|-----------------------|-------------------3----|


       A7   D5     N.C.                    D5C5Bb5    F/A  C5
   +E   Q    Q      S  S  S  S  S  S    Q.      Q      Q    E
|-(12)------10-----------10h13p10----|-10------15b17--15---12--|
|------13----------10h13----------13-|-------------------------|
|------------------------------------|-------------------------|
|------------------------------------|-------------------------|
|------------------------------------|-------------------------|
|------------------------------------|-------------------------|
|
|  +H          +E   S  S  S  S  S  S    W
|------------------------------------|-------------------------|
|------------------------------------|-------------------------|
|--(7)---------(7)--------7h10p=7----|--7----------------------|
|-------------------7h10----------10-|-------------------------|
|------------------------------------|-------------------------|
|------------------------------------|-------------------------|
|
|  +E   E E  Q      S  S  S  S  S  S    E  E E  Q      E E  E
|------------------------------------|-------------------------|
|------------------------------------|-------------------------|
|------------------------------------|-------------------------|
|--(5)--5----7------------0h=3p=0----|--0--7s5--3------3----5--|
|--(3)--0----5------0h=3-----------3-|-----5s3--1------0----3--|
|---------3--------------------------|-------------------3-----|


       A7   D5     N.C.                    D5C5Bb5    F/A  C5
   +E   Q    Q      S  S  S  S  S  S    Q.      Q      Q    E
|-(12)------10-----------10h13p10----|-10------13b15--13---12-|
|------13----------10h13----------13-|------------------------|
|------------------------------------|------------------------|
|------------------------------------|------------------------|
|------------------------------------|------------------------|
|------------------------------------|------------------------|
|
|  +H          +E   S  S  S  S  S  S    W
|------------------------------------|------------------------|
|------------------------------------|------------------------|
|--(7)---------(7)--------7h10p=7----|--7---------------------|
|-------------------7h10----------10-|------------------------|
|------------------------------------|------------------------|
|------------------------------------|------------------------|
|
|  +E   E E  Q      S  S  S  S  S  S    E  E E  Q      E E  E
|------------------------------------|------------------------|
|------------------------------------|------------------------|
|------------------------------------|------------------------|
|--(5)--5----7------------0h=3p=0----|--0--7s5--3------3----5-|
|--(3)--0----5------0h=3-----------3-|-----5s3--1------0----3-|
|---------3--------------------------|-------------------3----|


       A7   D5     N.C.                    D5C5Bb5    F/A  C5        A7
                                                               2/4
   +E   Q    Q      S  S  S  S  S  S    Q.      Q      Q    E    +E   Q    E
|-(12)------10-----------10h13p10----|-10------15b17--15---12-|-(12)---------------||
|------13----------10h13----------13-|------------------------|------13---12b14----||
|------------------------------------|------------------------|--------------------||
|------------------------------------|------------------------|--------------------||
|------------------------------------|------------------------|--------------------||
|------------------------------------|------------------------|--------------------||
|
|  +H          +E   S  S  S  S  S  S    W                        +H
|------------------------------------|------------------------|--------------------||
|------------------------------------|------------------------|--------------------||
|--(7)---------(7)--------7h10p=7----|--7---------------------|--(7)---------------||
|-------------------7h10----------10-|------------------------|--------------------||
|------------------------------------|------------------------|--------------------||
|------------------------------------|------------------------|--------------------||
|
|  +E   E E  Q      S  S  S  S  S  S    E  E E  Q      E E  E    +E   E Q
|------------------------------------|------------------------|--------------------||
|------------------------------------|------------------------|--------------------||
|------------------------------------|------------------------|--------------------||
|--(5)--5----7------------0h=3p=0----|--0--7s5--3------3----5-|--(5)--5------------||
|--(3)--0----5------0h=3-----------3-|-----5s3--1------0----3-|--(3)--0------------||
|---------3--------------------------|-------------------3----|---------3----------||


 Verse
  C#m                             G#m
 4/4
  Gtr I
                                   ~~~~~
   +H.              E     +S  S    H.                 E     +S  S
|-------------------------------|---------------------------------|
|-(12)-------------12b14r(12)p9-|-11b12--------------11b12r(11)p9-|
|-------------------------------|---------------------------------|
|-------------------------------|---------------------------------|
|-------------------------------|---------------------------------|
|-------------------------------|---------------------------------|
|
| Gtr III
|   e  E e E e S S  e      S  S    e    E E. S e S S  e      S  S
|-------------------------------|---------------------------------|
|---5----5---5------------------|---------------------------------|
|---4----4---4----------------4-|---------4--4-4------4---------4-|
|---6----6---6------6---------4-|---------4--4-4---4--4---------4-|
|---4----4---4-4-4--4---------6-|-------6-6--6-6-6----6------6----|
|-------------------------------|--4----4-------------------------|


  C#m7                 C7    D7       E7
                     ~~~~
   Q        +E   +S  S Q      Q        E      E  E  +S  S  S S  S S E  E
|-----------------------------------|--------12-----------------------------|
|-----------------------------------|--------12-----------------------------|
|-11b13====(11)r(11)-9-9-----11-----|-11b13=====11r(11)p9-11p9----9-9-------|
|-----------------------------------|--------------------------11-----11----|
|-----------------------------------|---------------------------------------|
|-----------------------------------|---------------------------------------|
|
|  e     E   e    E    S S E  S S E    E      E  Q         S E    S E  E
|-----------------------------------|---------------------------------------|
|--5---------5---------5-5-5--7-7-7-|------------9---------9-9----9-9-------|
|--4---------4---------3-3-3--5-5-5-|------------7---------7-7----7-7-------|
|--6---------6---------5-5-5--7-7-7-|---------9--9---------9-9----9-9--9\---|
|--------4--------4----3-3-3--5-5-5-|--7------7-----------------------------|
|-----------------------------------|---------------------------------------|


  F#m             B                    E         A
  S  S E E    E   S  S  +S  S E    E   S  S S  S S  S  S     +E     S  S  S E.     S
|------------------------------------|-----------------------------------------------|
|------------------------------------|-----------------------------------------------|
|------9-9------------------9-9------|------9-11-9-11-11b13r(11)----9-11----9--------|
|-9h11-------11---9h11-(11)-------11-|-9h11------------------------------11-------11-|
|------------------------------------|-----------------------------------------------|
|------------------------------------|-----------------------------------------------|
|
| E    E S S  S S S  S   S  S S S  E   E    S  S S  S  S      S  E.       S S S E
|--------4p2-------------------------|-----------2p=0--------------------------------|
|--------2----2-------------4--------|------0--0-------0------0----------------------|
|------2--------2-----------4--------|------1--1-------1------1----------------------|
|-4----------------------4----6p4----|------2--2-------2------2--2--------2-4p2------|
|-----------------4S=6-------------6-|---------------------------0--------------4----|
|------------------------------------|-0---------------------------------------------|


  F#m                    B                            E
                                                     2/4
  S  S E  Q          +S   +S  E    E        +S    S   H
|---------------------------------------------------|------------||
|---------------------------------------------------|------------||
|------9-11b13======(11)r(11)-9---11b13====(11)r-11-|-9----------||
|-9h11----------------------------------------------|------------||
|---------------------------------------------------|------------||
|---------------------------------------------------|------------||
|
| E    E  S     s E   E       S S  S     S   S    S   E S S Q
|---------2-----2-----------------------------------|------------||
|---------2-----2-----------------------------------|------------||
|---------2-----2------------------4-----4--------x-|-1---1-1----||
|------4------------------------4--4-----4--------x-|-2-x-2-2----||
|---------------------2-------2----2---------2------|-2-x-2-2----||
|-2-------------------------------------------------|-0-----0----||


 Chorus
  N.C.                        D5C5Bb5    F/A  C5
                         4/4
  Gtr I
  +E   S  S  S  S  S  S    Q.      Q      Q    E
|-----------10h13p10----|-10------13b15--13---12-|
|-----10h13----------13-|------------------------|
|-(9)-------------------|------------------------|
|-----------------------|------------------------|
|-----------------------|------------------------|
|-----------------------|------------------------|
|
| Gtr II
|  E   S  S  S  S  S  S    W
|-----------------------|------------------------|
|-----------------------|------------------------|
|------------7h10p=7----|--7---------------------|
|------7h10----------10-|------------------------|
|-----------------------|------------------------|
|-----------------------|------------------------|
|
| Gtr III
|  E   S  S  S  S  S  S    E  E E  Q      E E  E
|-----------------------|------------------------|
|-----------------------|------------------------|
|-----------------------|------------------------|
|------------0h=3p=0----|--0--7s5--3------3----5-|
|--0---0h=3-----------3-|-----5s3--1------0----3-|
|-----------------------|-------------------3----|


       A7   D5     N.C.                    D5C5Bb5    F/A  C5
   +E   Q    Q      S  S  S  S  S  S    Q.      Q      Q    E
|-(12)------10-----------10h13p10----|-10------15b17--15---12-|
|------13----------10h13----------13-|------------------------|
|------------------------------------|------------------------|
|------------------------------------|------------------------|
|------------------------------------|------------------------|
|------------------------------------|------------------------|
|
|  +H          +E   S  S  S  S  S  S    W
|------------------------------------|------------------------|
|------------------------------------|------------------------|
|--(7)---------(7)--------7h10p=7----|--7---------------------|
|-------------------7h10----------10-|------------------------|
|------------------------------------|------------------------|
|------------------------------------|------------------------|
|
|  +E   E E  Q      S  S  S  S  S  S    E  E E  Q      E E  E
|------------------------------------|------------------------|
|------------------------------------|------------------------|
|------------------------------------|------------------------|
|--(5)--5----7------------0h=3p=0----|--0--7s5--3------3----5-|
|--(3)--0----5------0h=3-----------3-|-----5s3--1------0----3-|
|---------3--------------------------|-------------------3----|


       A7   D5     N.C.                    D5C5Bb5    F/A  C5
   +E   Q    Q      S  S  S  S  S  S    Q.      Q      Q    E
|-(12)------10-----------10h13p10----|-10------13b15--13---12-|
|------13----------10h13----------13-|------------------------|
|------------------------------------|------------------------|
|------------------------------------|------------------------|
|------------------------------------|------------------------|
|------------------------------------|------------------------|
|
|  +H          +E   S  S  S  S  S  S    W
|------------------------------------|------------------------|
|------------------------------------|------------------------|
|--(7)---------(7)--------7h10p=7----|--7---------------------|
|-------------------7h10----------10-|------------------------|
|------------------------------------|------------------------|
|------------------------------------|------------------------|
|
|  +E   E E  Q      S  S  S  S  S  S    E  E E  Q      E E  E
|------------------------------------|------------------------|
|------------------------------------|------------------------|
|------------------------------------|------------------------|
|--(5)--5----7------------0h=3p=0----|--0--7s5--3------3----5-|
|--(3)--0----5------0h=3-----------3-|-----5s3--1------0----3-|
|---------3--------------------------|-------------------3----|


       A7   D5     N.C.                    D5C5Bb5    F/A  C5        A7
                                                               2/4
   +E   Q    Q      S  S  S  S  S  S    Q.      Q      Q    E    +E   Q    E
|-(12)------10-----------10h13p10----|-10------15b17--15---12-|-(12)---------------||
|------13----------10h13----------13-|------------------------|------13---12b14----||
|------------------------------------|------------------------|--------------------||
|------------------------------------|------------------------|--------------------||
|------------------------------------|------------------------|--------------------||
|------------------------------------|------------------------|--------------------||
|
|  +H          +E   S  S  S  S  S  S    W                        +H
|------------------------------------|------------------------|--------------------||
|------------------------------------|------------------------|--------------------||
|--(7)---------(7)--------7h10p=7----|--7---------------------|--(7)---------------||
|-------------------7h10----------10-|------------------------|--------------------||
|------------------------------------|------------------------|--------------------||
|------------------------------------|------------------------|--------------------||
|
|  +E   E E  Q      S  S  S  S  S  S    E  E E  Q      E E  E    +E   E Q
|------------------------------------|------------------------|--------------------||
|------------------------------------|------------------------|--------------------||
|------------------------------------|------------------------|--------------------||
|--(5)--5----7------------0h=3p=0----|--0--7s5--3------3----5-|--(5)--5------------||
|--(3)--0----5------0h=3-----------3-|-----5s3--1------0----3-|--(3)--0------------||
|---------3--------------------------|-------------------3----|---------3----------||


 Verse
  C#m                             G#m
 4/4
  Gtr I
                                   ~~~~~
   +H.              E     +S  S    H.                 E     +S  S
|-------------------------------|---------------------------------|
|-(12)-------------12b14r(12)p9-|-11b12--------------11b12r(11)p9-|
|-------------------------------|---------------------------------|
|-------------------------------|---------------------------------|
|-------------------------------|---------------------------------|
|-------------------------------|---------------------------------|
|
| Gtr III
|   e  E e E e S S  e      S  S    e    E E. S e S S  e      S  S
|-------------------------------|---------------------------------|
|---5----5---5------------------|---------------------------------|
|---4----4---4----------------4-|---------4--4-4------4---------4-|
|---6----6---6------6---------4-|---------4--4-4---4--4---------4-|
|---4----4---4-4-4--4---------6-|-------6-6--6-6-6----6------6----|
|-------------------------------|--4----4-------------------------|


  C#m7                 C7    D7       E7
                     ~~~~
   Q        +E   +S  S Q      Q        Q       E      S  S  +S  S  E   E  S  S
|-----------------------------------|----------------12-------------------------|
|-----------------------------------|-------------------------------------------|
|-11b13====(11)r(11)-9-9-----11-----|-11b13---11b13=====11r(11)p9------9--------|
|-----------------------------------|-----------------------------11-----11--9--|
|-----------------------------------|-------------------------------------------|
|-----------------------------------|-------------------------------------------|
|
|  e     E   e    E    S S E  S S E    E    E  Q             S  E    S E  E
|-----------------------------------|-------------------------------------------|
|--5---------5---------5-5-5--7-7-7-|----------9-------------9--9----9-9--------|
|--4---------4---------3-3-3--5-5-5-|----------7-------------7--7----7-7--------|
|--6---------6---------5-5-5--7-7-7-|-------9--9-------------9--9----9-9--9\----|
|--------4--------4----3-3-3--5-5-5-|--7----7-----------------------------------|
|-----------------------------------|-------------------------------------------|


  F#m             B                      E                    A
  S  S E E    E   S  S  +S  S E    S S    E     E    S  +S  S S  S S  S S E    S S
|--------------------------------------|--------x----------------------------------|
|--------------------------------------|-------------------------------------------|
|------9-9------------------9-9------9-|-11b13======11r(11)-9-9h11p9----9-9------9-|
|-9h11-------11---9h11-(11)-------11---|-----------------------------11-------11---|
|--------------------------------------|-------------------------------------------|
|--------------------------------------|-------------------------------------------|
|
| E    E S S  S S S  S   S  S S S  E      E     S S  S   S  S S  E.     S S S  E
|--------4p2---------------------------|-------------2p==0-------------------------|
|--------2----2-------------4----------|--------0-0---------0-0--------------------|
|------2--------2-----------4----------|--------1-1---------1-1--------------------|
|-4----------------------4----6p4------|--------2-2---------2-2--2------2-4p2------|
|-----------------4S=6-------------6---|-------------------------0-------------4---|
|--------------------------------------|--0----------------------------------------|


  F#m                      B               E
                                          2/4
                                           ~
   S  S  S  S  E.     S  E  S S  E   S S   H
|----------------------------------------|------------||
|-------12-------------------------------|------------||
|-11s13----13s11------9-11----9-11---9-9-|-9----------||
|--------------------------11------------|------------||
|----------------------------------------|------------||
|----------------------------------------|------------||
|
|  E     E     S  s E    E  S S  S S S S   E S S Q
|--------------2--2----------------------|------------||
|--------------2--2----------------------|------------||
|--------------2--2--------------4-4---x-|-1---1-1----||
|--------4--------------------4--4-4---x-|-2-x-2-2----||
|------------------------2--2----2---2---|-2-x-2-2----||
|--2-------------------------------------|-0-----0----||


  N.C.                        D5C5Bb5    F/A  C5        A7   D5     N.C.
                         4/4
  Gtr I
  +E   S  S  S  S  S  S    Q.      Q      Q    E    +E   Q    Q      S  S  S  S  S  S
|-----------10h13p10----|-10------13b15--13---12-|-(12)------10-----------10h13p10----|
|-----10h13----------13-|------------------------|------13----------10h13----------13-|
|-(9)-------------------|------------------------|------------------------------------|
|-----------------------|------------------------|------------------------------------|
|-----------------------|------------------------|------------------------------------|
|-----------------------|------------------------|------------------------------------|
|
| Gtr II
|  E   S  S  S  S  S  S    W                        +H          +E   S  S  S  S  S  S
|-----------------------|------------------------|------------------------------------|
|-----------------------|------------------------|------------------------------------|
|------------7h10p=7----|--7---------------------|--(7)---------(7)--------7h10p=7----|
|------7h10----------10-|------------------------|-------------------7h10----------10-|
|-----------------------|------------------------|------------------------------------|
|-----------------------|------------------------|------------------------------------|
|
| Gtr III
|  E   S  S  S  S  S  S    E  E E  Q      E E  E    +E   E E  Q      S  S  S  S  S  S
|-----------------------|------------------------|------------------------------------|
|-----------------------|------------------------|------------------------------------|
|-----------------------|------------------------|------------------------------------|
|------------0h=3p=0----|--0--7s5--3------3----5-|--(5)--5----7------------0h=3p=0----|
|--0---0h=3-----------3-|-----5s3--1------0----3-|--(3)--0----5------0h=3-----------3-|
|-----------------------|-------------------3----|---------3--------------------------|


      D5C5Bb5    F/A  C5        A7   D5     N.C.
   Q.      Q      Q    E    +E   Q    Q      S  S  S  S  S  S
|-10------15b17--15---12-|-(12)------10-----------10h13p10----|
|------------------------|------13----------10h13----------13-|
|------------------------|------------------------------------|
|------------------------|------------------------------------|
|------------------------|------------------------------------|
|------------------------|------------------------------------|
|
|  W                        +H          +E   S  S  S  S  S  S
|------------------------|------------------------------------|
|------------------------|------------------------------------|
|--7---------------------|--(7)---------(7)--------7h10p=7----|
|------------------------|-------------------7h10----------10-|
|------------------------|------------------------------------|
|------------------------|------------------------------------|
|
|  E  E E  Q      E E  E    +E   E E  Q      S  S  S  S  S  S
|------------------------|------------------------------------|
|------------------------|------------------------------------|
|------------------------|------------------------------------|
|--0--7s5--3------3----5-|--(5)--5----7------------0h=3p=0----|
|-----5s3--1------0----3-|--(3)--0----5------0h=3-----------3-|
|-------------------3----|---------3--------------------------|


   Chorus - Guitar Solo
        D5C5Bb5    F/A  C5        A7   D5     N.C.
     Q.      Q      Q    E    +E   Q    Q      S  S  S  S  S  S
||--10------13b15--13---12-|-(12)------10-----------10h13p10----|
||o------------------------|------13----------10h13----------13-|
||-------------------------|------------------------------------|
||-------------------------|------------------------------------|
||o------------------------|------------------------------------|
||-------------------------|------------------------------------|
|
|    W                        +H          +E   S  S  S  S  S  S
||-------------------------|------------------------------------|
||o------------------------|------------------------------------|
||---7---------------------|--(7)---------(7)--------7h10p=7----|
||-------------------------|-------------------7h10----------10-|
||o------------------------|------------------------------------|
||-------------------------|------------------------------------|
|
|    E  E E  Q      E E  E    +E   E E  Q      S  S  S  S  S  S
||-------------------------|------------------------------------|
||o------------------------|------------------------------------|
||-------------------------|------------------------------------|
||---0--7s5--3------3----5-|--(5)--5----7------------0h=3p=0----|
||o-----5s3--1------0----3-|--(3)--0----5------0h=3-----------3-|
||--------------------3----|---------3--------------------------|


      D5C5Bb5    F/A  C5        A7   D5     N.C.
   Q.      Q      Q    E    +E   Q    Q      S  S  S  S  S  S    8x
|-10------15b17--15---12-|-(12)------10-----------10h13p10-------||
|------------------------|------13----------10h13----------13---o||
|------------------------|---------------------------------------||
|------------------------|---------------------------------------||
|------------------------|--------------------------------------o||
|------------------------|---------------------------------------||
|
|  W                        +H          +E   S  S  S  S  S  S    8x
|------------------------|---------------------------------------||
|------------------------|--------------------------------------o||
|--7---------------------|--(7)---------(7)--------7h10p=7-------||
|------------------------|-------------------7h10----------10----||
|------------------------|--------------------------------------o||
|------------------------|---------------------------------------||
|
|  E  E E  Q      E E  E    +E   E E  Q      S  S  S  S  S  S    8x
|------------------------|---------------------------------------||
|------------------------|--------------------------------------o||
|------------------------|---------------------------------------||
|--0--7s5--3------3----5-|--(5)--5----7------------0h=3p=0-------||
|-----5s3--1------0----3-|--(3)--0----5------0h=3-----------3---o||
|-------------------3----|---------3-----------------------------||


      D5C5Bb5    F/A  C5        A7   D5     N.C.
   Q.      Q      Q    E    +E   Q    Q      S  S  S  S  S  S
|-10------13b15--13---12-|-(12)------10-----------10h13p10----|
|------------------------|------13----------10h13----------13-|
|------------------------|------------------------------------|
|------------------------|------------------------------------|
|------------------------|------------------------------------|
|------------------------|------------------------------------|
|
|  W                        +H          +E   S  S  S  S  S  S
|------------------------|------------------------------------|
|------------------------|------------------------------------|
|--7---------------------|--(7)---------(7)--------7h10p=7----|
|------------------------|-------------------7h10----------10-|
|------------------------|------------------------------------|
|------------------------|------------------------------------|
|
|  E  E E  Q      E E  E    +E   E E  Q      S  S  S  S  S  S
|------------------------|------------------------------------|
|------------------------|------------------------------------|
|------------------------|------------------------------------|
|--0--7s5--3------3----5-|--(5)--5----7------------0h=3p=0----|
|-----5s3--1------0----3-|--(3)--0----5------0h=3-----------3-|
|-------------------3----|---------3--------------------------|


      D5C5Bb5    F/A  C5        A7
                                                  >
   Q.      Q      Q    E    +E   H..             +W
|-10------15b17--15---12-|-(12)---------------|---------||
|------------------------|------13------------|-(13)----||
|------------------------|--------------------|---------||
|------------------------|--------------------|---------||
|------------------------|--------------------|---------||
|------------------------|--------------------|---------||
|
|                                                 >
|  W                        +E   H..             +W
|------------------------|--------------------|---------||
|------------------------|--------------------|---------||
|--7---------------------|--(7)---------------|---------||
|------------------------|------10------------|-(10)----||
|------------------------|--------------------|---------||
|------------------------|--------------------|---------||
|
|                                                 >
|  E  E E  Q      E E  E    +E   E   +H.         +W
|------------------------|--------------------|---------||
|------------------------|--------------------|---------||
|------------------------|--------------------|---------||
|--0--7s5--3------3----5-|--(5)--5---(5)------|--(5)----||
|-----5s3--1------0----3-|--(3)--0---(0)------|--(0)----||
|-------------------3----|--------------------|---------||


 Bridge
  Q=110
  Wx12
|---------||
|---------||
|---------||
|---------||
|---------||
|---------||


 Outro Solo
  C                        C/E
  Gtr I
   a  Q.    E  Q.      E     Q.    E  +Q.      E
|------------------------|-----------------------|
|-18s20----20-20------22-|--20----20-(20)-----20-|
|------------------------|-----------------------|
|------------------------|-----------------------|
|------------------------|-----------------------|
|------------------------|-----------------------|
|
| Gtr II
|  a  H.            E  E    +H.             Q
|------------------------|-----------------------|
|-18s20------------18-17-|-(17)------------------|
|------------------------|-----------------17----|
|------------------------|-----------------------|
|------------------------|-----------------------|
|------------------------|-----------------------|


  F
    E   Q   E   Q       +E   E    Q   +E   E  Q   Q
|------------------------------|----------------------|
|--18s=20s=18--18------(18)s17-|-17--(17)s15-15s=13---|
|------------------------------|----------------------|
|------------------------------|----------------------|
|------------------------------|----------------------|
|------------------------------|----------------------|
|
|  +E   Q.     +S   E.  +Q        W
|------------------------------|----------------------|
|------------------------------|----------------------|
|-(17)s19-----(19)s21--(21)s===|=17-------------------|
|------------------------------|----------------------|
|------------------------------|----------------------|
|------------------------------|----------------------|


  Bb7
   E  Q   E  Q.   E    E  Q     E  E  Q     E
|-------------------|-------------------------|
|-13s15s=13-13------|-13s15s===13-13s18s===17-|
|-------------------|-------------------------|
|-------------------|-------------------------|
|-------------------|-------------------------|
|-------------------|-------------------------|
|
|  W                   E  E  E  E  Q     E  E
|-------------------|-------------------------|
|-------------------|-------18s17-------------|
|-------------------|----17-------17-------17-|
|-------------------|-------------------17----|
|-------------------|-------------------------|
|-------------------|-------------------------|


  C
    H.        E E    E Q   E  E  Q.
|-----------------|-----------------------|
|---------------5-|--6s5------6s=5--------|
|--17---------5---|--------5--------------|
|-----------------|-----------------------|
|-----------------|-----------------------|
|-----------------|-----------------------|
|
|  +H     Q   Q      Q.    E  E  E   E  E
|------------10s==|=20----20s22s20--20s22-|
|-----------------|-----------------------|
|-(17)------------|-----------------------|
|-----------------|-----------------------|
|-----------------|-----------------------|
|-----------------|-----------------------|


                     C/E
   a  W                  E Q       E  H
|------------------|-----------------------|
|--6s=8------------|-----5s6s======5--5----|
|------------------|-----------------------|
|------------------|-----------------------|
|------------------|-----------------------|
|------------------|-----------------------|
|
|  a  H     Q.   E    a  Q    +E   E  H
|-20s22----20------|-17s19---(19)s17-17----|
|------------------|-----------------------|
|------------------|-----------------------|
|------------------|-----------------------|
|------------------|-----------------------|
|------------------|-----------------------|


  F
      S E. +Q    H          E Q       E  E E E E
|---------------------|--------------------------|
|-----5s6--(6)--------|-----5s6s======5----------|
|----------------5----|------------------7s5-5s7-|
|---------------------|--------------------------|
|---------------------|--------------------------|
|---------------------|--------------------------|
|
|  a  H          H       a  Q    +E   E  H
|---------------------|--------------------------|
|-17s18---------17----|--------------------------|
|---------------------|-17s19---(19)s17-17-------|
|---------------------|--------------------------|
|---------------------|--------------------------|
|---------------------|--------------------------|


  Bb7
      E Q.    +Q      E E    a  H.        E E
|-------------------------|-------------------|
|-------------------------|-------------------|
|-----5s7-----(7)-----5s7-|--5s=7---------5s7-|
|-------------------------|-------------------|
|-------------------------|-------------------|
|-------------------------|-------------------|
|
|  a  H       +E   Q.        a  H      H
|-------------------------|-------------------|
|-------------------------|-------------------|
|-17s19------(19)s21------|-21s22-----21s=====|
|-------------------------|-------------------|
|-------------------------|-------------------|
|-------------------------|-------------------|


  C
   H              H        Q      E  E  H
|----------------------|---------10s=8s=7----|
|-----------------5----|---------------------|
|--5-------------------|---------------------|
|----------------------|---------------------|
|----------------------|---------------------|
|----------------------|---------------------|
|
|  S  E.  +E   E  H       +E   E  E  E  H
|----------------------|---------------------|
|----------------------|---------17s18-17----|
|-17s19--(19)s17-17----|-(17)-17-------------|
|----------------------|---------------------|
|----------------------|---------------------|
|----------------------|---------------------|


  Am                    Dm
      H      Q     Q    a  H            H
|---------------------|------------------------|
|---------------------|------------------------|
|------------------7--|-5s10------------7------|
|---------------------|------------------------|
|---------------------|------------------------|
|---------------------|------------------------|
|
|  a  H     +E   E Q       S  E.  +Q    Q   Q
|---------------------|------------------------|
|-17s20----(20)s22----|---17s18--(18)--17------|
|---------------------|--------------------17--|
|---------------------|------------------------|
|---------------------|------------------------|
|---------------------|------------------------|


  G                         C
  a   Q       +E  E  H       H.       E  E
|-------------------------|-----------------|
|-------------------------|-------------17--|
|-4s==5-------(5)s4--4----|-17-------17-----|
|-------------------------|-----------------|
|-------------------------|-----------------|
|-------------------------|-----------------|
|
|    +S   E.  +Q     H       H.       E  E
|-------------------------|-----------------|
|-------------------------|-------------17--|
|---(17)s19--(19)---16----|-17-------17-----|
|-------------------------|-----------------|
|-------------------------|-----------------|
|-------------------------|-----------------|


  Am                 Dm
   W                  W
|------------------|-------------------|
|------------------|-------------------|
|------------------|-------------------|
|------------------|-------------------|
|------------------|-------------------|
|------------------|-------------------|
|
|  Q.    +E   H       E  E  +Q    H
|-22----(22)s19----|-------------------|
|------------------|-17s18-(18)--17----|
|------------------|-------------------|
|------------------|-------------------|
|------------------|-------------------|
|------------------|-------------------|


  G
   E     E   E  E  E E Q     E  E  E  E  E  E  E  E
|-------------------------|--------------------------|
|-------------------------|-12s13s12----12s13s12-----|
|--4s====5s==4s=5s=4s5s4--|----------12----------12--|
|-------------------------|--------------------------|
|-------------------------|--------------------------|
|-------------------------|--------------------------|
|
|  S  E.    +Q     H         E  E  E  E  E  E  E  E
|-------------------------|--------------------------|
|-------------------------|--------------------------|
|-17s19----(19)---17------|-16s17s16s17s16s17s16s17--|
|-------------------------|--------------------------|
|-------------------------|--------------------------|
|-------------------------|--------------------------|


  C                        C/E
  Gtr I
         |------3------|                     |--3---|
   H     Q     Q       Q    a  H            +Q   Q  Q
|------------------------|-----------------------------|
|-13---------------------|-------------------------12--|
|--------------9s=====10-|-10s12-----------(12)-12-----|
|------------------------|-----------------------------|
|------------------------|-----------------------------|
|------------------------|-----------------------------|
|
| Gtr II
|  H     S  E.    +Q           S  E.  +Q     H
|-20----20s22----(22)----|----22s24--(24)---25---------|
|------------------------|-----------------------------|
|------------------------|-----------------------------|
|------------------------|-----------------------------|
|------------------------|-----------------------------|
|------------------------|-----------------------------|


  F
      Q   E  E  Q   E  E    Q   E  E  E  E  E  E
|------------------------|------------------------|
|----13--13s15-15--15s20-|-20--20s22-22s20-20s22--|
|------------------------|------------------------|
|------------------------|------------------------|
|------------------------|------------------------|
|------------------------|------------------------|
|
|  a  H         H           H         Q     E  E
|-25s27--------25--------|-24s=======22s===20-----|
|------------------------|------------------------|
|------------------------|------------------------|
|------------------------|------------------------|
|------------------------|------------------------|
|------------------------|------------------------|


  C                            C/E                        F
                                            |----3----|
      Q.     E   Q.        E    E  E  E  E  Q      Q  Q       H     E  E  Q
|----------------------------|--------------------------|----------------------|
|----22-----20--20-----------|-18s17-18s17--------------|----------------------|
|-------------------------17-|-------------17-----17-17-|----17----17s19-19----|
|----------------------------|--------------------------|----------------------|
|----------------------------|--------------------------|----------------------|
|----------------------------|--------------------------|----------------------|
|
|  a  Q   E  E  +E   E  E  E    E  E  E  E  E  Q.          a  H     E  E  E  E
|-20s22s=20-17-(17)----------|--------------------------|----------------------|
|-------------------17----17-|-------17s18s17-----------|----------------------|
|----------------------17----|----17----------17--------|-17s19----21s19-19s17-|
|----------------------------|--------------------------|----------------------|
|----------------------------|--------------------------|----------------------|
|----------------------------|--------------------------|----------------------|


                             Bb7
  Gtr I
   E  E  Q     Q      E  E    a  Q.    E  H
|--------------------------|-----------------------|
|-15s17-17----13-----13s15-|-13s15----15-15--------|
|--------------------------|-----------------------|
|--------------------------|-----------------------|
|--------------------------|-----------------------|
|--------------------------|-----------------------|
|
| Gtr II
|  Q     E  E  E  Q.          a  Q.    E  E  E  Q
|--------------------------|-----------------------|
|-------17s18s17-----------|-17s20----20-20s18-18--|
|-17-------------17--------|-----------------------|
|--------------------------|-----------------------|
|--------------------------|-----------------------|
|--------------------------|-----------------------|


                              C
      E  Q   E  S  E.  +Q      E  E  Q   +H
|---------------------------|-----------------------|
|----15s17--17-17s15--(15)--|-13s15s13--(13)--------|
|---------------------------|-----------------------|
|---------------------------|-----------------------|
|---------------------------|-----------------------|
|---------------------------|-----------------------|
|
|  a  Q.     E  H              H.              E  E
|---------------------------|-----------------------|
|-18s20-----20s22s==========|=20--------------20-20-|
|---------------------------|-----------------------|
|---------------------------|-----------------------|
|---------------------------|-----------------------|
|---------------------------|-----------------------|


   E  E  E  E a  E  E  E E   a  Q   Q    +E   E Q
|--------------------------|-------------------------|
|--6s=5-------5s=6s=5------|--------------------3----|
|--------5-------------5---|-2s=5---5----(5)--5------|
|-----------5------------5-|-------------------------|
|--------------------------|-------------------------|
|--------------------------|-------------------------|
|
|  E  E  E  E    E  E  Q        Q.     Q      Q    E
|-20s19--------------------|-------------------------|
|-------20s18---17---------|-------------------------|
|------------------17------|---17------------17---16-|
|---------------------17---|----------17-------------|
|--------------------------|-------------------------|
|--------------------------|-------------------------|
|
| Gtr IV
|  W                            Q.     E  Q     Q
|--------------------------|-------------------------|
|--------------------------|-------------------------|
|--------------------------|----0------0--2-----0----|
|--------------------------|-------------------------|
|--------------------------|-------------------------|
|--------------------------|-------------------------|


  C/E                        F
  a  H.              Q        H        H
|--------------------------|--------------------|
|-3s=5---------------6s====|==8--------6--------|
|--------------------------|--------------------|
|--------------------------|--------------------|
|--------------------------|--------------------|
|--------------------------|--------------------|
|
|    Q.    E  Q     +E   E    Q.    E  H
|--------------------------|--------------------|
|---------15-17----(17)s18s|=20----18-18--------|
|---17---------------------|--------------------|
|--------------------------|--------------------|
|--------------------------|--------------------|
|--------------------------|--------------------|
|
| a  H        E Q.            H        E E E E
|--------------------------|--------------------|
|--------------------------|---------------0----|
|-2s=4--------2-0----------|-----------0-2------|
|--------------------------|--2--------------2--|
|--------------------------|--------------------|
|--------------------------|--------------------|


                                   Bb7
  a  H        a  E Q.               E  Q.     H
|--------------------------------|----------------------------|
|-3s=5---------------------------|----------------------------|
|-------------5s=7s5-------------|--5s=7s=====5---------------|
|--------------------------------|----------------------------|
|--------------------------------|----------------------------|
|--------------------------------|----------------------------|
|
|    Q.    E  a  E.    S  +E   E    E  E  Q   S  E.    +E   E
|---22----24-22s24s===22-(22)-22-|-22s24-22--22s24----(24)s22-|
|--------------------------------|----------------------------|
|--------------------------------|----------------------------|
|--------------------------------|----------------------------|
|--------------------------------|----------------------------|
|--------------------------------|----------------------------|
|
|   +W                              H         E     E   E   E
|--------------------------------|----------------------------|
|--------------------------------|----------------------------|
|--------------------------------|----------------------0---2-|
|---(2)--------------------------|------------------1---------|
|--------------------------------|----------------------------|
|--------------------------------|----------------------------|


                         C
   E  Q.     H            H     Q  E E
|----------------------|----------------|
|----------------------|-------------5s=|
|--5s=7s=====5---------|----------------|
|----------------------|----------------|
|----------------------|----------------|
|----------------------|----------------|
|
|  E  E  Q   Q    E  E    W
|-22s24s22--25s==27s25-|----------------|
|----------------------|-25-------------|
|----------------------|----------------|
|----------------------|----------------|
|----------------------|----------------|
|----------------------|----------------|
|
|  Q     Q   E Q     E   +W
|----------------------|----------------|
|--0-------------------|----------------|
|--------2---0-------0-|-(0)------------|
|--------------1-------|----------------|
|----------------------|----------------|
|----------------------|----------------|


   E  E     E  E  E E     Q       E E  H         Q
|------------------------------|----------------------|
|--6s=5--------5s=6s5----------|--6s5-----------------|
|-----------5-------------5----|-------5---------5----|
|------------------------------|----------------------|
|------------------------------|----------------------|
|------------------------------|----------------------|
|
|  E  E  a  E  E  Q    a  E  E    Q    E  E  Q   E  E
|------------------------------|----------------------|
|----17-17s18s17-17---17s18s17-|------18s17-----18s17-|
|-17---------------------------|-17---------17--------|
|------------------------------|----------------------|
|------------------------------|----------------------|
|------------------------------|----------------------|
|
|  W                              Q.      E  Q   Q
|------------------------------|----------------------|
|------------------------------|----------------------|
|------------------------------|--0-------0--2---0----|
|------------------------------|----------------------|
|------------------------------|----------------------|
|------------------------------|----------------------|


  C/E
  a  Q.         E  H
|---------------------------------|
|-3s=5----------5--5--------------|
|---------------------------------|
|---------------------------------|
|---------------------------------|
|---------------------------------|
|
|    Q    a  E  E  Q     a  E  E
|---------------------------------|
|--------17s18s17-------17s18s17--|
|---17------------17--------------|
|---------------------------------|
|---------------------------------|
|---------------------------------|
|
| a  H             E Q.
|---------------------------------|
|---------------------------------|
|-2s=4-------------2-0------------|
|---------------------------------|
|---------------------------------|
|---------------------------------|


  F
   E Q.        S E.    Q         H         H
|--5s7---------7s5---------|------------------------|
|----------------------5---|-----6s========5--------|
|--------------------------|------------------------|
|--------------------------|------------------------|
|--------------------------|------------------------|
|--------------------------|------------------------|
|
|  Q     E  E  Q       E E    a  Q    E E  S  E. Q
|--------------------------|------------------------|
|-------20s17--------------|------------------------|
|-17----------17------17---|-17s22---21---17s19s17--|
|--------------------------|------------------------|
|--------------------------|------------------------|
|--------------------------|------------------------|
|
|  H           E    E  E E      +W
|--------------------------|------------------------|
|----------------------0---|------------------------|
|--------------0----2------|------------------------|
|--2---------------------2-|----(2)-----------------|
|--------------------------|------------------------|
|--------------------------|------------------------|


  Bb7
      E Q  E H          E Q.    H
|--------------------|---------------------|
|--------------------|---------------------|
|-----5s7--7-7-------|--7s9s====7----------|
|--------------------|---------------------|
|--------------------|---------------------|
|--------------------|---------------------|
|
|  a  W                 H       E  E  Q
|--------------------|---------------------|
|--------------------|---------------------|
|-19s21--------------|-19------19s21s19----|
|--------------------|---------------------|
|--------------------|---------------------|
|--------------------|---------------------|
|
|     H      E E E E    Q   Q   E  Q    E
|--------------------|---------------------|
|--------------------|--0------------------|
|----------------0-2-|------2---0-------0--|
|--------------1-----|-------------1-------|
|--------------------|---------------------|
|--------------------|---------------------|


  C
   E  E E E +H            W
|----------------------|---------------------|
|--6s=5---5-(5)--------|---------------------|
|-------5--------------|---------------------|
|----------------------|---------------------|
|----------------------|---------
comments
We did not receive enough feedback on this tab! Please rate:
1 2 3 4 5
I want to post or [tab]
guest
You may want to rate the tab now too:
select rating
Please do not post tabs as comments. Select "correction" instead!