Oops, an error
Loading. Please wait.

Little Wing Tab

22,350 views 68 this week
no commentswrite comment
1 2 3 4 5
excellent!
x 3
Autoscroll
+/-
esc
set tempo
stop
WARNING: You are trying to view
                                    content from Ultimate-Guitar.com
                                    in an unauthorized application,
                                    which is prohibited.

                                    Please use an official Ultimate
                                    Guitar Tabs application for iPhone,
                                    iPad or Android to access legitimate
                                    chords, guitar, bass, and drum tabs
                                    from Ultimate-Guitar.com database.

                                    Type "ultimate guitar tabs" in Apple
                                    App Store's or Android Market's
                                    search to find the application.
LITTLE WING
As recorded by Derek And The Dominos
(From the 1970 Album LAYLA AND OTHER ASSORTED LOVE SONGS)
Words and Music by Jimi Hendrix
Arranged by Eric Clapton & Duane Allman

Gtr I (E A D G B E) - 'Eric Clapton - Lead / Rhythm w/dist'
Gtr II (E A D G B E) - 'Duane Allman - Rhythm w/overdrive'

Intro
    Q=67
   2/4
    Gtr I
    E.  T T E.  T T   E.   T  T  S T T  S T T  3x H      +H
||--7---7-7-7---7-7-|-7----9--9--9-5-5--5-7-7--||-7----|-(7)----||
||o-9---9-9-9---9-9-|-9---10-10-10-7-7--7-9-9-o||-9----|-(9)----||
||--9---9-9-9---9-9-|-9---11-11-11-7-7--7-9-9--||-9----|-(9)----||
||------------------|--------------------------||------|--------||
||o-----------------|-------------------------o||------|--------||
||------------------|--------------------------||------|--------||
||-Rhy Fig 1                                      end Rhy Fig 1-|
|
|   Gtr II
|   E..   T E..   T   E..     T  e      e      3x H      +H
||------------------|--------------------------||-4----|-(4)----||
||o-9-----9-9-----9-|-9-------9-10-----10-----o||-5----|-(5)----||
||--9-----9-9-----9-|-9-------9-11-----11------||-4----|-(4)----||
||--9-----9-9-----9-|-9-------9-11-----11------||-6----|-(6)----||
||o-----------------|-------------------------o||------|--------||
||------------------|--------------------------||------|--------||
 |-Rhy Fig 2                                      end Rhy Fig 2-|

 4/4
                   ~
   a      +E   +E  Q   E    E  E    E
|---------------------------------------|
|-10b12==(10)r(10)-7---7h===9--5h===7---|
|---------------------------------------|
|---------------------------------------|
|---------------------------------------|
|---------------------------------------|
|
|          Q       Q  +E  a E  S  S S S
|--------^-2----------------------------|
|--------^-2----------------2-(2)-------|
|--------^-2----------------2--2--------|
|--------^-4--------------2h4--2--2-----|
|--------^-4-------4--(4)-----------4p2-|
|---------------------------------------|


  ~                             ~     ~~~~~~~~~~
  H         E   E   E   E     a Q   a Q      Q     E    E
|---------------------------|-----------------------------|
|-------------------5---7---|-5s7---7s9-----10----10s==12-|
|-6---------6h==7-----------|-----------------------------|
|---------------------------|-----------------------------|
|---------------------------|-----------------------------|
|---------------------------|-----------------------------|
|
| E E E S S S S S S S S S S   a E E   S E S  E. S  S S  E
|---------------------------|-----------------------------|
|---------------------------|-----------------------------|
|-----2-------------------2-|-2h4-----2------2-----2------|
|---2-------5s4-2-----2-4-2-|-----4-----4-4-----4----4----|
|-0-----0-0-------2h4-------|---2-----------------------2-|
|---------------------------|-----------------------------|


           ~~~~~                          ~~~~~
   S      +E.     a      +E    E  S      +E.       S      +S   E
|-----------------------------12---------------------------------|
|-12b14==(12)r---12b14==(12)r----12b14==(12)r-----12pb14r(12)-10S|
|----------------------------------------------------------------|
|----------------------------------------------------------------|
|----------------------------------------------------------------|
|----------------------------------------------------------------|
|
|  E           E          E    E  S       S   S S  S       S   E
|----------------------------------------------------------------|
|----------------------------------------------------------------|
|---------------------------------------------2-2----------------|
|-------------------------4-------------------2-2--4p======2-----|
|--------------4---------------4--2-------4--------------------4-|
|--2-------------------------------------------------------------|


  ~
  Q   E    E    a      +E   +E     E     E
|--------------------------------------------|
|-9---9h==10---10b12==(10)r(10)----9h===10---|
|--------------------------------------------|
|--------------------------------------------|
|--------------------------------------------|
|--------------------------------------------|
|
| E E S S  S S  a       E    S  S +S  S  S S
|--------------------------------------------|
|-------5--------------------5---------------|
|-----4------4--5s======6-------4-(4)--------|
|---6------6--------------------------6--6s4-|
|-4------------------------------------------|
|--------------------------------------------|


   ~~~~~~~~~~~~~~~~~~~~~~~~~~~~~
   Q      Q         Q        Q
|------------------------------------|
|------------------------------------|
|-11-----13--------14-------16-------|
|------------------------------------|
|------------------------------------|
|------------------------------------|
|
|  E S S +S  S S S  S S S S  S S S S
|----------------------------3p2-----|
|------3-(3)---3------3---3--------3-|
|----2-------2------2------------2-2-|
|----------------0--0---0--------0---|
|--2---------------------------------|
|------------------------------------|


   S  S  S  S  S S S S S S E     +E.      S
|-17s14-14s12-12s9-9s7-7s5-5-----(5)s====17-||
|-------------------------------------------||
|-------------------------------------------||
|-------------------------------------------||
|-16s14-14s12-12s9-9s7-7s5-5-----(5)s====17-||
|-------------------------------------------||
|
|  E     S  S  S S S S S S S  S  +S  S S  S
|------------------------------------3----3-||
|----------------------------(0)-(0)-0-0--0-||
|--------2-------2---2--------0--(0)-0-0--0-||
|-----------0h=2---2-------0--0--(0)---0----||
|------------------------2------------------||
|--5-------------------3--------------------||


 2/4
Rhy Fig 1 + 2 (without repeats)


 Verse 1
 4/4
  Q  E E  a      +E   +E  a     S.+T      +E
|----------------------------------------------|
|------7-10b12==(10)r(10)----------------------|
|-------------------------9b11==9r(9)b11==(9)r-|
|----------------------------------------------|
|----------------------------------------------|
|----------------------------------------------|
|
| Q  E E          Q             E          e
|-2--2-----------------------------------------|
|-2--2--------------------------2--------------|
|-2--2--------------------------2--------------|
|-4--4-4------------------------4--------------|
|-4--4------------4-------------4----------4---|
|-2--2-----------------------------------------|
|-Rhy Fig 3

                                              ~~~~~~~~~~
  E. S S  S S  S S  S S  S S    S   S  S   S  E.    +H.
|----------------------------------------|--------------------------|
|----------------------------------------|--------------------------|
|-9h11-9h11-9h11-9h11-9h11-9h==11---9----|-9h11----(11)-------------|
|-------------------------------------11-|--------------------------|
|----------------------------------------|--------------------------|
|----------------------------------------|--------------------------|
|
|                          |--3---|
| E. S E    S  S S  S E    S S    S E      E     E   E  S S E E E E
|----------------------------------------|--------------------------|
|-2--------------------------------------|-----------3------3---3---|
|--------------2-----------2-------------|-------2---2------2-2-2-x-|
|-2h=4------2--------------2h4p===2------|-------4------4-4-4-4-4-x-|
|-0----0---------0h=2p0-------------4----|-2----------------2---2---|
|----------------------------------------|--------------------------|


                                                            ~~~~~
                               |----3-----|              |3-|
  Q   a      +E.    S  a      +S   +S     S  S  S  S  S  S  E
|----12b14==(12)r---x-------------------------------------------|
|---------------------12b14==(12)r(12)p==10-12----10h12-10h12---|
|----------------------------------------------11---------------|
|---------------------------------------------------------------|
|---------------------------------------------------------------|
|---------------------------------------------------------------|
|
| Q           E   S S          S       S     S  S  S  S  S    S
|-2-------------------------------------------------------------|
|-2-------------------------------------------------------------|
|-2-----------2------------------------------2------------------|
|-4-----------4------------------------------2-----4p=2-------2-|
|-4-----------4---4-4----------2h======4--------4--------4------|
|-2-------------------------------------------------------------|


 ~~~
                                     |-----3-----|
  W                 H             E  S      +S   S  S  S  E
|-----------------|--------------12---------------------------|
|-9---------------|-----------------12pb14r(12)p10-12----10---|
|-----------------|-----------------------------------11------|
|-----------------|-------------------------------------------|
|-----------------|-------------------------------------------|
|-----------------|-------------------------------------------|
|
| E E Q  E E E E    E S S S S E   E  Q                    E
|-----------------|-------------------------------------------|
|-----5------5-5\-|-----3---------3--3--------------------3---|
|---4-4--4-4-4-4\-|-----2---2-----2--2--------------------2---|
|---6----6-----6\-|---4---4---4\--4--4--------------------4---|
|-4------4--------|-2-----------------------------------------|
|-----------------|-------------------------------------------|


                                                        2/4
   ~~
                              |---3---|
   Q      a      +E      E    S      +E   E  E    E       E  E    Q
|-----------------------12----------------------------||---------------|
|-10-----12b14==(12)r--------12pb14r(12)-10-10h==12---||-12p10---10\---|
|-----------------------------------------------------||---------------|
|-----------------------------------------------------||---------------|
|-----------------------------------------------------||---------------|
|-----------------------------------------------------||---------------|
|
|  E S S         +S   S  S S  E           E  S S  S S     E  S S  E  E
|-----------------------------------------3--3-3--3-3-||--2--2-2--2--2-|
|--2---2---------(2)--2----2--------------0--0-0--0-0-||--3--3-3--3--3-|
|--2-2-2---------(2)--2----2--0-----------0--0-0--0-0-||--2--2-2--2--2-|
|--2-2-------------------2----0-----------0--0-0--0-0-||--0--0-0--0--0-|
|--0---------------------0----2-----------------------||---------------|
|-----------------------------3-----------------------||---------------|
                                                         end Rhy Fig 3-|

Rhy Fig 1 + 2 (without repeats)



 Verse 2
 4/4
                 ~~~~~~~~
  Q  E  S  S  S  E.  +Q
|-------------------------|
|------10-12-12-12--(12)--|
|-------------------------|
|-------------------------|
|-------------------------|
|-------------------------|
|
| Q  Q        Q       Q
|-------------------------|
|-2--2--------------------|
|-2--2--------2-------2---|
|-4--4--------4-------4---|
|-4--4--------4-------4---|
|-2--2--------2-------2---|


   +Q    E      +e   a      +S   +S   e       S      +S   E
|-------12pb14r(12)-----------------------------------------|
|-(12)--------------12b14==(12)r(12)p10------12pb14r(12)-10-|
|-----------------------------------------------------------|
|-----------------------------------------------------------|
|-----------------------------------------------------------|
|-----------------------------------------------------------|
|
|   Q    E       E           S    S   e a    +S      +S   e
|-----------------------------------------------------------|
|---2----2--------------------------------------------------|
|---2----2-------------------2--------2---------------------|
|---2----2-------2----------------4---2-4b6==(4)r====(4)--2-|
|---0----0--------------------------------------------------|
|-----------------------------------------------------------|


                         ~~~~~~~~~~~~~~
   a      +H            +H          H           a      +E     +E   E     E
|--------------------------------|------------------------------------------|
|-12b15==(12)----------(12)r-----|-------------10b12==(10)r==(10)--7----10--|
|--------------------------------|-11---------------------------------------|
|--------------------------------|------------------------------------------|
|--------------------------------|------------------------------------------|
|--------------------------------|------------------------------------------|
|
|          E   E   Q     Q    Q     E. S E S S          S  S   E  +S  S  E
|--------------------------------|-----------------------------2--(2)---(2)-|
|-----------------(3)----3----3--|-(2)-------------------------2--(2)----2--|
|----------4-------4-----4----4--|--2--2-------------------2----------2--2--|
|----------4--(4)--------4----4--|--4----4---4-------------4----------------|
|----------2-------------2-------|--4------4------------4-------------------|
|--------------------------------|--2---------------------------------------|


                         ~~~~~~~
  a     +S  +S      +S  +S  +H.
|-------------------------------------------------|
|-9b10==(9)r(9)b10==(9)r(9)-(9)-------------------|
|-------------------------------------------------|
|-------------------------------------------------|
|-------------------------------------------------|
|-------------------------------------------------|
|
|        Q                   E  E  S S S S E S S
|--------4-------------------------2-2-2-2-2------|
|--------5-------------------5-----3-3-3-3-3------|
|--------6-------------------6--6\-4-4-4-4-4-x-x--|
|--------6-------------------6-----4-4-4-4-4-x-x--|
|--------4-------------------------2-2-2-2-2------|
|-------------------------------------------------|


                                       ~~
  Q   E E    a      +E    a      +E    Q
|-----------12b14==(12)r-12b14==(12)r-12---|
|-7---7s5----------------------------------|
|------------------------------------------|
|------------------------------------------|
|------------------------------------------|
|------------------------------------------|
|
| E E E S S          E            E    E E
|-----2--------------2-----------------2-2-|
|-----3--------------3-----------------3-3-|
|---2---2-2----------2------------2----2-2-|
|-4------------------4-----------------4-4-|
|-2----------------------------------------|
|------------------------------------------|


                                            2/4
   S  S  S  S  S S S S S S E   +E  +S   S     S  S  S  S  S S  S S
|-17s14-14s12-12s9-9s7-7s5-5---(5)-(5)s17-||-17s14-14s12-12s9--9s7--|
|-----------------------------------------||------------------------|
|-----------------------------------------||------------------------|
|-----------------------------------------||------------------------|
|-16s14-14s12-12s9-9s7-7s5-5---(5)-(5)s17-||-17s14-14s12-12s9--9s7--|
|-----------------------------------------||------------------------|
|
|  E     S  S  S S S S S S S S +E   E         E     S  S  S E.
|----------------------------3-(3)--3-----||--2-----2-------2-------|
|----------------------------0-(0)--0-----||--3-----------3---------|
|--------2--2----------------0-(0)--0-----||--2--------2------------|
|--------------2h4-4s2-2p0-0--------------||--4---------------------|
|--0--------------------------------------||------------------------|
|----------------------3------------------||------------------------|


Rhy Fig 1 + 2 (without repeats)


 Guitar Solo
 4/4
   E  E  E  E  a      +Q        S  S      +S   S
|------------------------------------------------|
|------------------------------17----------------|
|-11h13-14s16-16b18==(16)r--------16pb18r(16)-14-|
|------------------------------------------------|
|------------------------------------------------|
|------------------------------------------------|
|
|  Q     Q             E   S S  E          E
|--2---------------------------------------------|
|--2----------------------------2----------------|
|--2-----2-------------------2--2----------2-----|
|--4-----4-------------4-----4--4----------4-----|
|--4-----4-------------4---4----4----------4-----|
|--2-----2-------------2---2-2--2----------2-----|
|-Rhy Fig 4

                ~~~~
   a      +E   +E   E  E    E    E    E   E
|-------------------------------------------|
|-------------------------------------------|
|-16b18==(16)r(16)-14s13---14p==13---11s==9-|
|-------------------------------------------|
|-------------------------------------------|
|-------------------------------------------|
|
|          E    E   E  S S  S S  S S  S S E
|-------------------------------------------|
|----------2--------2-----------------------|
|----------2--------2------------2-2------2-|
|----------2----2---2----2-------2-2--4p2-2-|
|----------0----0---0--4----2h4-----------4-|
|-------------------------------------------|


     ~~~                                ~~         ~~~
  a  Q     E   E    E  E    E    E      Q   S S a  E    +S  S  S S +S   S  +S  S
|------------------------------------|-------------------------------------------|
|------------------------------------|----------------------9-10p9-(9)--------10-|
|-9h11----11h=13---14h16---14p==13---|-11--11p9-9h11---(11)------------11-(11)---|
|------------------------------------|-------------------------------------------|
|------------------------------------|-------------------------------------------|
|------------------------------------|-------------------------------------------|
|
|    e  E  E   S S  E  S S  S S  S S    Q   S S    S S   S  S  E    S   S   S  S
|---------(2)-------2--2-2--2-2--2-2-|--2---2------0h2---2--2--2----2---2---2s=9-|
|----------3--------3--3-3--3-3--3-3-|--2---2------0h2---2--2--2----2---2---2s=9-|
|---(4)----2-----2--2--2-2--2-2--2-2-|--2---2-x----1h2---2--2--2----2---2---2s=9-|
|----4--4--4---4----4--4-4--4-4--4-4-|--4---4-x----4-----4--4--4----4---4---4s11-|
|----2--2--2--------2--2-2--2-2--2-2-|--4---4-x----4-----4--4--4----4---4---4s11-|
|------------------------------------|--2---2-x----------2--2--2----2---2---2s=9-|


   ~~~~~~~~~~~~~~
   Q           Q           a      +Q        T  +S.  E
|-------------------------------------------------------|
|--9----------10----------12b14==(12)------12r(12)-10---|
|-------------------------------------------------------|
|-------------------------------------------------------|
|-------------------------------------------------------|
|-------------------------------------------------------|
|
|  S  S  S  S  S  S  S  S          E  S  S  E       S S
|--9----------------------------------------------------|
|--9----------------------------------------------------|
|--9--9--9--9--9--9--9--9-------------------------------|
|-11-11-11-11-11-11-11-11------------------11------11-9-|
|-11-11-11-11-11-11-11-11---------------11--------------|
|--9--9--9--9--9--9--9--9----------9--9-----------------|


   a      +Q          a      +Q         a      +Q          a      +S   +S   E
|-12b14==(12)r-------14b16==(14)r------16b17==(16)r-------14b16==(14)r(14)-12--|
|------------------------------------------------------------------------------|
|------------------------------------------------------------------------------|
|------------------------------------------------------------------------------|
|------------------------------------------------------------------------------|
|------------------------------------------------------------------------------|
|
|          S   S S S          S   S E           S   S S S          S    S   E
|------------------------------------------------------------------------------|
|----------7------------------7-----------------7---7-7-7----------7----7---7\-|
|----------7---7-7-7----------7---7-7\----------7---7-7-7----------7----7---7\-|
|----------9---9-9-9----------9---9-9\----------7---7-7-7----------7----7---7\-|
|----------9---9-9-9----------9---9-9\----------5---5-5-5----------5----5---5\-|
|----------7------------------7------------------------------------------------|


                                                          2/4
                                          ~~~~~~~~                         ~~~~~~~
   S  S  S  S  S  S  S  S  a      +E      E    Q            a      +E      E    E    S  S
|-17p14-17-17-17p14-17-17-17b19==(17)r---17---17--------||-17b20==(17)r---17---17---17-17---|
|-------------------------------------------------------||----------------------------------|
|-------------------------------------------------------||----------------------------------|
|-------------------------------------------------------||----------------------------------|
|-------------------------------------------------------||----------------------------------|
|-------------------------------------------------------||----------------------------------|
|
|  S  S  S  S  S  S  S  S          S   S  S S +S  S S S             S   S  S S  S S  E
|-------------------------------------------------------||----------2---2--2-2--2-2--2------|
|-------------------------------------------------------||----------3---3--3-3--3-3--3------|
|-------------------------------------------0-(0)-0-0-0-||----------2---2--2-2--2-2--2------|
|--0h=2--2--2--2-----2--2-----------------0-------------||----------0---0--0-0--0-0--0------|
|--0h=2--4--4--2h=4--------------------2----------------||----------------------------------|
|----------------------------------3--------------------||----------------------------------|
                                                                              end Rhy Fig 4-|

Rhy Fig 2 (without repeats)
                         ~~~~~~~~~~~                         ~~~~~~~~~~
   S   S  S  S    S   S  E      E.   T  T  e  e    E.  T  T  Q     +Q   E. S
|-17p=16-16s14---14s=12-12---|-12---14-14-14----|-12--12h14p12--|-(12)-------|
|----------------------------|---------------15-|---------------|------------|
|----------------------------|------------------|---------------|-------2s14-|
|----------------------------|------------------|---------------|------------|
|----------------------------|------------------|---------------|------------|
|----------------------------|------------------|---------------|------------|

w/Rhy Fig 4
 4/4
   |--3--|  |--3--|  |--3--|  |--3--|  |--3--|  |---3---|  |--3--|  |--3--|
   S  S  S  S  S  S  S  S  S  S  S  S  S  S  S  S  S    S  S  S  S  S  S  S
|---------------------------------------------------------------------------|
|-17p14----17p14----17p14----17p14----17p14----17p14------17p14----17p14----|
|-------14-------14-------14-------14-------14---------14-------14-------14-|
|---------------------------------------------------------------------------|
|---------------------------------------------------------------------------|
|---------------------------------------------------------------------------|


                 ~~~
   E  E  E  E    E    a      +E      a      +S   +S   E
|-17-17-17-17---17---17b19==(17)r---17b19==(17)r(17)-14---|
|---------------------------------------------------------|
|---------------------------------------------------------|
|---------------------------------------------------------|
|---------------------------------------------------------|
|---------------------------------------------------------|



           ~~~~               ~~~                                          ~~~~~~~
                                       |----3----|
   S      +E.    +E   S  +S   E.    S  E    E    E     a     +Q.      E    Q    E    E
|-17b19==(17)---(17)-17r(17)-14-------14---17---14--|-17b19=(17)r----17---14---14---17---|
|----------------------------------17---------------|------------------------------------|
|---------------------------------------------------|------------------------------------|
|---------------------------------------------------|------------------------------------|
|---------------------------------------------------|------------------------------------|
|---------------------------------------------------|------------------------------------|


   ~~
   Q           E     a  E     a      +S   +S       +S   +S   E      +E
|-16----------16----16s17----16b17==(16)r(16)b17==(16)r(16)-16b17==(16)r----|
|---------------------------------------------------------------------------|
|---------------------------------------------------------------------------|
|---------------------------------------------------------------------------|
|---------------------------------------------------------------------------|
|---------------------------------------------------------------------------|


   ~~
   Q        E    E   a      +E      E    S      +E     S
|-14-------14---14---------------------------------------|
|-------------------17b19==(17)r---17--------------------|
|---------------------------------------16pb18r(16)------|
|--------------------------------------------------------|
|--------------------------------------------------------|
|--------------------------------------------------------|


                                                 2/4
    E    S  S  E    S  S  S  S  S S  S  S E        S  S  S  S  S S S S
|-------17-17-17---17s14-14s12-12s9--9s=7-7/---||-17s14-14s12-12s9-9s7-||
|----------------------------------------------||----------------------||
|-(14)-----------------------------------------||----------------------||
|----------------------------------------------||----------------------||
|--16---16-16-16---16s14-14s12-12s9--9s=7-7/---||-17s14-14s12-12s9-9s7-||
|----------------------------------------------||----------------------||

Rhy Fig 2 (without repeats)
  E.  T T E.  T T   E.  T T  e  e   H      +H
|-7---7-7-7---7-7-|-7---9-9--9--5-|-5----|-(5)----||
|-----------------|---------------|------|--------||
|-----------------|---------------|------|--------||
|-----------------|---------------|------|--------||
|-7---7-7-7---7-7-|-7---9-9--9--5-|-5----|-(5)----||
|-----------------|---------------|------|--------||


 Verse 3
w/Rhy Fig 3
 4/4
                          ~~
  H       a      +E    E  Q
|-----------------------------|
|--------12b14==(12)r-12-10---|
|-----------------------------|
|-----------------------------|
|-----------------------------|
|-----------------------------|


                                                             ~
   +H          S      +S   +S       +S   +E           +E     H         H
|----------------------------------------------------------|-------------------|
|-(10)--------10b12==(10)r(10)b12==(10)r(10)b12======(10)r-|-7-----------------|
|----------------------------------------------------------|-------------------|
|----------------------------------------------------------|-------------------|
|----------------------------------------------------------|-------------------|
|----------------------------------------------------------|-------------------|


                                                    ~~~~~
                                   |------3------|
  Q  E  a      +E     +E      e    S      +S     S  E
|------12b14==(12)---(12)r---12-------------------------|
|---------------------------------12pb14r(12)p==10-12---|
|-------------------------------------------------------|
|-------------------------------------------------------|
|-------------------------------------------------------|
|-------------------------------------------------------|


 ~~~
  Q   +S   S S  S Q.     E    E.   T  T E.      T  T S   S  S  S      +E   +E
|---------------------------|--------------------------------------------------|
|-9---(9)h12p9h12p9h====10--|-7----7h10p7-------7h10p7-----10-12b14==(12)r(12)-|
|---------------------------|--------------------------/11---------------------|
|---------------------------|--------------------------------------------------|
|---------------------------|--------------------------------------------------|
|---------------------------|--------------------------------------------------|


                                         |---3----|
   Q..              S      +E    a      +S   +S   S  E    a      +E
|-----------------------------------------------------------------------||
|-10---------------12b14==(12)r-12b14==(12)r(12)p10-10---12b14==(12)r---||
|-----------------------------------------------------------------------||
|-----------------------------------------------------------------------||
|-----------------------------------------------------------------------||
|-----------------------------------------------------------------------||


 2/4
                        ~~~~
   a      +E   +S   S  +E   +E
|--------------------------------|
|-12b14==(12)r(12)-10-(10)-(10)\-|
|--------------------------------|
|--------------------------------|
|--------------------------------|
|--------------------------------|

Rhy Fig 1 + 2 (without repeats)


 4/4
w/Rhy Fig 4
                                 ~
  H      a      E  +T  S.  E E   H         a  E    E    E    a      +E
|------------------------------|----------------------------------------|
|-------10b12==10r(10)p7h==9p7-|------------------10---12---12b14==(12)-|
|------------------------------|-9---------9s11-------------------------|
|------------------------------|----------------------------------------|
|------------------------------|----------------------------------------|
|------------------------------|----------------------------------------|


       ~~~~~~~~~~
   S   E.    +H.                     H           a      +E.      +S  E.     S
|----------------------------------|------------------------------------------|
|-12r=12----(12)-------------------|------------10b12==(10)r====(10)-7h====10-|
|----------------------------------|------------------------------------------|
|----------------------------------|------------------------------------------|
|----------------------------------|------------------------------------------|
|----------------------------------|------------------------------------------|


   ~~
   Q          +S      +S  +S      +S  +Q.          S S
|--------------------------------------------------------|
|--9----------(9)b10==(9)r(9)b10==(9)r(9)---------10-7---|
|--------------------------------------------------------|
|--------------------------------------------------------|
|--------------------------------------------------------|
|--------------------------------------------------------|


   ~~~
                              |----3-----|
  +Q.            a      +E   +E         +S   S  S  +S   s E
|---------------14b16==(14)-(14)b17====(14)r---14-(14)s12----|
|-(7)--------------------------------------------------------|
|------------------------------------------------------------|
|------------------------------------------------------------|
|------------------------------------------------------------|
|------------------------------------------------------------|
|


                                            2/4
   S  S  S  S  S S S S S S E   +E.      S     S  S  S  S  S S S S
|-17s14-14s12-12s9-9s7-7s5-5---(5)s====17-||-17s14-14s12-12s9-9s7-|
|-----------------------------------------||----------------------|
|-----------------------------------------||----------------------|
|-----------------------------------------||----------------------|
|-16s14-14s12-12s9-9s7-7s5-5---(5)s====17-||-17s14-14s12-12s9-9s7-|
|-----------------------------------------||----------------------|


Rhy Fig 1 + 2 (without repeats)

 Guitar Solo
w/Rhy Fig 4
 4/4
                 ~~~~~~~
   a      +Q    +Q    Q      S  S  E
|-17b19==(17)r=(17)--14-----17p14----|
|---------------------------------17-|
|------------------------------------|
|------------------------------------|
|------------------------------------|
|------------------------------------|


   S      +S   +E   E  S  S  S  S  S  S  S  S  S  S
|---------------------------------------------------|
|-17b19==(17)r(17)-17-17-17-15p14----14-15p14----14-|
|---------------------------------14----------14----|
|---------------------------------------------------|
|---------------------------------------------------|
|---------------------------------------------------|


   S   S  S  S  S   S  S  S  E  a      +E     +E     E
|--------------------------------------------------------|
|-15--14----14-15--14----14-15-15b17==(15)r==(15)--------|
|--------14-----------14----------------------------14---|
|--------------------------------------------------------|
|--------------------------------------------------------|
|--------------------------------------------------------|


   a      +Q.       +S   S  Q      +S   S  S  S     E     E     E     E     E E     E  E
|-----------------------------------------------|------------------------------------------|
|-15b17==(15)r=====(15)p14-14-----(14)-14-14-14-|-/14s===12----12s===10----10s9-----9h10---|
|-----------------------------------------------|------------------------------------------|
|-----------------------------------------------|------------------------------------------|
|-----------------------------------------------|------------------------------------------|
|-----------------------------------------------|------------------------------------------|


                         ~
  E   E   E   E  E   E   Q
|-------------------------------|
|-7h==9-------------------------|
|---------9p==7--6h==7----------|
|------------------------7------|
|-------------------------------|
|-------------------------------|

              ~~
  S  S  S  S  E    a  S  S  a      +E      E    a      +E      a      +E
|------------------------------------------------------------------------------||
|-----10-12----10---12s14-17-17b19==(17)r---17---------------------------------||
|-/11-------11-----------------------------------16b18==(16)r---16b17==(16)r---||
|------------------------------------------------------------------------------||
|------------------------------------------------------------------------------||
|------------------------------------------------------------------------------||

 2/4
   S  S  a      +E     +E      a      +E
|---------------------------------------------||
|---------------------------------------------||
|-14-14-16b21==(16)---(16)r---16b18==(16)r----||
|---------------------------------------------||
|---------------------------------------------||
|---------------------------------------------||

Rhy Fig 2 (without repeats)
       ~~
   S   E  T  T  E.   T  T    E.   T  T  s  T  T  s  T  T
|-------------------------|------------------------------|
|-------------------------|------14-14-14----------------|
|-14h=16-16-16-16---16-16-|-16------------14-14-14-16-16-|
|-------------------------|------------------------------|
|-------------------------|------------------------------|
|-------------------------|------------------------------|


   ~~~~~~~~~~~~
   H       +S    S  S  S  a      +E    a      +E
|-------|----------17----20b23==(20)r-20b22==(20)r-||
|-------|------/17----17---------------------------||
|-16----|-(16)-------------------------------------||
|-------|------------------------------------------||
|-------|------------------------------------------||
|-------|------------------------------------------||


 4/4
w/Rhy Fig 4
   ~~~~~~
   Q   Q   S      +S   E    T      +T   S  S  S
|-17--19--19b21==(19)r-----19pb21r(19)-17-19-17-|
|-----------------------------------------------|
|-----------------------------------------------|
|-----------------------------------------------|
|-----------------------------------------------|
|-----------------------------------------------|


                                                             ~~~
   a      +S    a      +S   S  a      S   a      +E   +E     E.     S  S  S  S  S
|-19b21==(19)r-19b21==(19)r---19b21==19r-19b21==(19)r(19)---17-----14-17-14-17-14-|
|---------------------------------------------------------------------------------|
|---------------------------------------------------------------------------------|
|---------------------------------------------------------------------------------|
|---------------------------------------------------------------------------------|
|---------------------------------------------------------------------------------|


                                        ~~~~~~~~~
   a      +E    S  S      +E    S      +S   +E.     S  S  S  S  S
|--------------17-------------------------------------------------|
|-17b19==(17)r----17b20==(17)r-17b19==(17)-(17)r---14-17-14-17-14-|
|-----------------------------------------------------------------|
|-----------------------------------------------------------------|
|-----------------------------------------------------------------|
|-----------------------------------------------------------------|


           ~~~~~
   a      +E.   S  a      +E.       S  a      +E      a      +E    S  T      +T   S  S
|-----------------------------------------------------------------17-------------------|
|-17b19==(17)r-14-17b19==(17)r-----14-17b19==(17)r---17b19==(17)r----17pb19r(17)-14-14-|
|--------------------------------------------------------------------------------------|
|--------------------------------------------------------------------------------------|
|--------------------------------------------------------------------------------------|
|--------------------------------------------------------------------------------------|

      ~~                         ~~
   a  Q           a  E.       S  Q       Q
|--------------------------------------------------|
|-14s15----------15s17s======12-12-------9---------|
|--------------------------------------------------|
|--------------------------------------------------|
|--------------------------------------------------|
|--------------------------------------------------|

   ~~      ~~
   Q    a  Q      a      +Q     T  S. E
|---------------------------------------|
|-10---10s12-----12b14==(12)---12r12----|
|---------------------------------------|
|---------------------------------------|
|---------------------------------------|
|---------------------------------------|


                                          2/4
   S  S  S  S  S S S S S S E   +E.    S     S  S  S  S  S S  S S
|-17s14-14s12-12s9-9s7-7s5-5---(5)s==17-||-17s14-14s12-12s9--9s7-|
|---------------------------------------||-----------------------|
|---------------------------------------||-----------------------|
|---------------------------------------||-----------------------|
|-16s14-14s12-12s9-9s7-7s5-5---(5)s==17-||-17s14-14s12-12s9--9s7-|
|---------------------------------------||-----------------------|


Rhy Fig 1 + 2 (with repeats
comments
We did not receive enough feedback on this tab! Please rate:
print report bad tab
1 2 3 4 5
I want to post or [tab]
guest
You may want to rate the tab now too:
select rating
Please do not post tabs as comments. Select "correction" instead!