Oops, an error
Loading. Please wait.

Thorn Tree In The Garden Tab

ver1
ver1

Whole song

Interactive

More versions @911Tabs.com
5,771 views 12 this week
2 commentsread comments
1 2 3 4 5
accurate
x 3
Autoscroll
+/-
esc
set tempo
stop
WARNING: You are trying to view
                                    content from Ultimate-Guitar.com
                                    in an unauthorized application,
                                    which is prohibited.

                                    Please use an official Ultimate
                                    Guitar Tabs application for iPhone,
                                    iPad or Android to access legitimate
                                    chords, guitar, bass, and drum tabs
                                    from Ultimate-Guitar.com database.

                                    Type "ultimate guitar tabs" in Apple
                                    App Store's or Android Market's
                                    search to find the application.
Artist/Band: Derek And The Dominos
Song: Thorn Tree In The Garden
Album: Layla And Other Assorted Love Songs




Acoustic Guitar 1 (Capo II)
on acoustic guitars 2 means 0 becouse of the capo, everything is really -2 frets



     W                   E  E  E  Q    Q    E     E  E  E   Q      Q      E    
E||-------------------|-----------2----4-------|------------5------4------2---|
B||-------------------|--------5------------5--|-----------(2)----(2)----(2)--|
G||-------------------|-----4------------------|--------2---------------------|
D||-------------------|--2---------------------|-----2------------------------|
A||-------------------|------------------------|--4---------------------------|
E||-------------------|------------------------|------------------------------|


  E  E  E  Q    Q    E     E  E  E   Q      Q      E    
-----------2----4-------|------------5------4------2---|
--------5------------5--|-----------(2)----(2)----(2)--|
-----4------------------|--------2---------------------|
--2---------------------|-----2------------------------|
------------------------|--4---------------------------|
------------------------|------------------------------|


  E  E  E  Q    Q    E     E  E  E   Q      Q      E    
-----------2----4-------|------------5------4------2---|
--------5------------5--|-----------(2)----(2)----(2)--|
-----4------------------|--------2---------------------|
--2---------------------|-----2------------------------|
------------------------|--4---------------------------|
------------------------|------------------------------|


  E  E  E  Q    E  E  E     E  E  E  Q    Q    E     E  E  E  Q     Q    E   
-----------4----2--------|-----------5----4----2--|-----------2h----4-------|
--------5----------5-----|--------2---------------|--------5-------------5--|
-----4----------------4--|-----6------------------|-----4-------------------|
-------------------------|------------------------|--2----------------------|
--2----------------------|--4---------------------|-------------------------|
-------------------------|------------------------|-------------------------|


  E  E  E  Q    Q    E     E  E  E  Q    Q    E     E  E  E  Q    Q    E   
-----------5----4----2--|-----------2----4-------|-----------2----4----2--|
-----2-----2------------|--------5------------5--|-----------2----2-------|
--------2---------------|-----4------------------|--------2---------------|
------------------------|--2---------------------|-----2------------------|
--4---------------------|------------------------|--4---------------------|
------------------------|------------------------|------------------------|


  E  E  E  Q     Q     E     E  E  E   Q     Q    E   
-----------2-----4--------|-----------(7)----5-------|
--------5-------(5)----5--|-----2------2-------------|
-----4--------------------|--------2--------------2--|
--2-----------------------|--------------------------|
--------------------------|--4-----------------------|
--------------------------|--------------------------|


  E  E  E   Q      Q     E     E  E  E  Q    Q    E     E  E  E  Q    Q    E   
------------2------4--------|-----------5----4-------|-----------2----4-------|
--------5--(5)----(5)-------|-----------2----2----2--|--------5--5----5-------|
-----4-------------------4--|--------2------------2--|-----4---------------4--|
--2-------------------------|-----2------------------|--2---------------------|
----------------------------|--4---------------------|------------------------|
----------------------------|------------------------|------------------------|


  E  E  E   Q     Q    E     E  E  E  E  E  E  E  E   
------------4-------------|--------------------------|
--------3--(3)----3-------|--------5--------5--------|
-----4------------4----2--|-----2--------2--------2--|
--2-----------------------|--------------------2-----|
--------------------------|--2--------2--------------|
--------------------------|--------------------------|


  E  E  E  E  E  E  E  E     E  E  E  E  E  E  E  E   
-----------4--------------|--------------------------|
--------4--------4--------|--------5-----------4-----|
-----4--------4-----4-----|-----6-----------------4--|
--2--------------------2--|--7--------7-----4--------|
--------------------------|--------------2-----------|
--------------------------|--------------------------|


  E  E  E  E  E  E  E  E     E  E  E  E  E  E  Q       E  E  E  E  E  E  E  E   
-----------2-----4--------|-----------5-------------|-----------4--------------|
--------5-----3--------2--|--------5--------5-------|--------4--------4--------|
-----4-----------------2--|-----6-------------------|-----4--------4-----------|
--2-----------------2-----|--7-----------7-----7----|--2-----------------2--2--|
--------------------------|-------------------------|--------------------------|
--------------------------|-------------------------|--------------------------|


  E  E  E  E  E  E  E   E      E  E  E  E  E  E  E  S  S  
----------------------------|----------------------------|
--------5-----------4-------|--------4--------5----------|
-----6-----6-----4-----(4)--|-----------2--------2-------|
--7-----------2---------2---|-----4--------4--------6S-7-|
----------------------------|--2-------------------------|
----------------------------|----------------------------|


  E   H.           E     E  E  E  Q    Q.        E  E  E  Q    E  E  E   
----------------------|-----------2----4------|-----------4-------------|
--5S--7------------L--|--------5--------------|--------3-------3--------|
--2---8------------L--|-----4-----------------|-----4----------------2--|
----------------------|--2--------------------|-------------------2-----|
----------------------|-----------------------|--7----------------------|
----------------------|-----------------------|-------------------------|


  E  E  E  E  E  E  E  E     E  E  H.              E  H        Q    E   
--------------------------|---------------------|----------------------|
--------5-----------5-----|--------5------------|--L-------------------|
-----6-----6-----5-----5--|-----4---------------|--L-------------------|
--7-----------7-----------|--2------------------|--L-------------------|
--------------------------|---------------------|----------------------|
--------------------------|---------------------|----------------------|


  E  E  E  Q    Q    E     E  E  E   Q      Q      E    
-----------2----4-------|------------5------4------2---|
--------5------------5--|-----------(2)----(2)----(2)--|
-----4------------------|--------2---------------------|
--2---------------------|-----2------------------------|
------------------------|--4---------------------------|
------------------------|------------------------------|


  E  E  E  Q    Q    E     E  E  E   Q      Q      E    
-----------2----4-------|------------5------4------2---|
--------5------------5--|-----------(2)----(2)----(2)--|
-----4------------------|--------2---------------------|
--2---------------------|-----2------------------------|
------------------------|--4---------------------------|
------------------------|------------------------------|


  E  E  E  Q    Q    E     E  E  E   Q     E  E  E     E  E  E  Q    E  E  E   
-----------2----4-------|------------4--------------|--------5----------------|
--------5------------5--|--------3--(3)----3--------|--------5----------5-----|
-----4------------------|-----4---------------------|-----6-----6----6--6-----|
--2---------------------|--2------------------2--2--|--7-------------------7--|
------------------------|---------------------------|-------------------------|
------------------------|---------------------------|-------------------------|


  E  E   E   Q    Q    E      E  E  E   Q    Q       E   
--------(7)--5----5--------|-----------11---------------|
---------------------------|--------9--------9----------|
-----5---------------------|-----8----------------------|
--7--------------------7S--|--9-------------------9g12--|
---------------------------|----------------------------|
---------------------------|----------------------------|


  E  E   E   Q     E  E   E       E  E   E   Q     E  E   E   
------------12----------------|-------------12---------------|
--------12--------12----------|---------10--------10---------|
-----2----------------2-------|------2----------------2------|
--L----------------------12S--|--11----------------------11--|
------------------------------|------------------------------|
------------------------------|------------------------------|


   E  E   E   Q     E  E   E     E  E  E   Q    Q       E   
-------------12---------------|-----------11---------------|
---------10--10----10---------|--------9--------9----------|
------2----------------2------|-----8----------------------|
--10----------------------10--|--9-------------------9g12--|
------------------------------|----------------------------|
------------------------------|----------------------------|


  E  E   E   Q     E  E   E       E  E   E   Q     E  E   E   
------------12----------------|-------------12---------------|
--------12--------12----------|---------10--------10---------|
-----2----------------2-------|------2----------------2------|
--L----------------------12S--|--11----------------------11--|
------------------------------|------------------------------|
------------------------------|------------------------------|


   E  E   E   Q     E  E   E     E  E  E   Q    Q      E   
-------------12---------------|-----------11--------------|
---------10--10----10---------|--------9--------9---------|
------2----------------2------|-----8---------------------|
--10----------------------10--|--9-------------------/12--|
------------------------------|---------------------------|
------------------------------|---------------------------|


  E  E   E   Q     E  E   E       E  E   E   Q     E  E   E   
------------12----------------|-------------12---------------|
--------12--------12----------|---------10--------10---------|
-----2----------------2-------|------2----------------2------|
--L----------------------12S--|--11----------------------11--|
------------------------------|------------------------------|
------------------------------|------------------------------|


   E  E   E   Q     E  E   E     E  E  E   Q    Q      E   
-------------12---------------|-----------11--------------|
---------10--10----10---------|--------9--------9---------|
------2----------------2------|-----8---------------------|
--10----------------------10--|--9-------------------/12--|
------------------------------|---------------------------|
------------------------------|---------------------------|


  E  E   E   Q     E  E   E       E  E   E   Q     E  E   E   
------------12----------------|-------------12---------------|
--------12--------12----------|---------10--------10---------|
-----2----------------2-------|------2----------------2------|
--L----------------------12S--|--11----------------------11--|
------------------------------|------------------------------|
------------------------------|------------------------------|


   E  E   E   Q     E  E   E     E  E  E   Q    Q       E   
-------------12---------------|-----------11---------------|
---------10--10----10---------|--------9--------9----------|
------2----------------2------|-----8----------------------|
--10----------------------10--|--9-------------------9g12--|
------------------------------|----------------------------|
------------------------------|----------------------------|


  E  E   E   Q     E  E   E       E  E   E   Q     E  E   E   
------------12----------------|-------------12---------------|
--------12--------12----------|---------10--------10---------|
-----2----------------2-------|------2----------------2------|
--L----------------------12S--|--11----------------------11--|
------------------------------|------------------------------|
------------------------------|------------------------------|


   E  E   E   Q     E  E   E     E  E  E   Q    Q       E   
-------------12---------------|-----------11---------------|
---------10--10----10---------|--------9--------9----------|
------2----------------2------|-----8----------------------|
--10----------------------10--|--9-------------------9g12--|
------------------------------|----------------------------|
------------------------------|----------------------------|


  E  E   E   Q     E  E   E       E  E   E   Q     E  E   E   
------------12----------------|-------------12---------------|
--------12--------12----------|---------10--------10---------|
-----2----------------2-------|------2----------------2------|
--L----------------------12S--|--11----------------------11--|
------------------------------|------------------------------|
------------------------------|------------------------------|


   E  E   E   Q     E  E   E     E  E  E  E   H          
-------------12---------------|--------------12--------||
---------10--10----10---------|--------9---------------||
------2----------------2------|-----9-----9------------||
--10----------------------10--|--9---------------------||
------------------------------|------------------------||
------------------------------|------------------------||










Acoustic Guitar 2 (Capo II)
on acoustic guitars 2 means 0 becouse of the capo, everything is really -2 frets



     W                   E  E  E  E  E  E  E  E      E   E  E  E  E  E  E  E   
E||-------------------|--------7--------7--------|--(7)-----7--------7--------|
B||-------------------|-----4--------4-----------|-------2--------2--------2--|
G||-------------------|-----------------------2--|----------------------------|
D||-------------------|--2--------2--------2-----|---2---------2--------2-----|
A||-------------------|--------------------------|----------------------------|
E||-------------------|--------------------------|----------------------------|


  E  E  E  E  E  E  E  E      E   E  E  E  E  E  E  E   
--------7--------7--------|--(7)-----7--------7--------|
-----4--------4-----------|-------2--------2--------2--|
-----------------------2--|----------------------------|
--2--------2--------2-----|---2---------2--------2-----|
--------------------------|----------------------------|
--------------------------|----------------------------|


  E  E  E  E  E  E  E  E      E   E  E  E  E  E  E  E   
--------7--------7--------|--(7)-----7--------7--------|
-----4--------4-----------|-------2--------2--------2--|
-----------------------2--|----------------------------|
--2--------2--------2-----|---2---------2--------2-----|
--------------------------|----------------------------|
--------------------------|----------------------------|


  E  E  E  E  E  E  E  E      E   E  E  E  E  E  E  E   
--------7--------7--------|--(7)-----7--------7--------|
-----4--------4-----------|-------2--------2--------2--|
-----------------------2--|----------------------------|
--2--------2--------2-----|---2---------2--------2-----|
--------------------------|----------------------------|
--------------------------|----------------------------|


  E  E  E  E  E  E  E  E      E   E  E  E  E  E  E  E   
--------7--------7--------|--(7)-----7--------7--------|
-----4--------4-----------|-------2--------2--------2--|
-----------------------2--|----------------------------|
--2--------2--------2-----|---2---------2--------2-----|
--------------------------|----------------------------|
--------------------------|----------------------------|


  E  E  E  E  E  E  E  E      E   E  E  E  E  E  E  E   
--------7--------7--------|--(7)-----7--------7--------|
-----4--------4-----------|-------2--------2--------2--|
-----------------------2--|----------------------------|
--2--------2--------2-----|---2---------2--------2-----|
--------------------------|----------------------------|
--------------------------|----------------------------|


  E  E  E  E  E  E  E  E      E   E  E  E  E  E  E  E   
--------7--------7--------|--(7)-----7--------7--------|
-----4--------4-----------|-------2--------2--------2--|
-----------------------2--|----------------------------|
--2--------2--------2-----|---2---------2--------2-----|
--------------------------|----------------------------|
--------------------------|----------------------------|


  E  E  E  E  E  E  E  E      E   E  E  E  E  E  E  E   
--------7--------7--------|--(7)-----7--------7--------|
-----4--------4-----------|-------2--------2--------2--|
-----------------------2--|----------------------------|
--2--------2--------2-----|---2---------2--------2-----|
--------------------------|----------------------------|
--------------------------|----------------------------|


  E  E  E  E  E  E  E  E     E  E  E  E  E  E  E  E     W                 
--------7--------7--------|--------7-----------------|-------------------|
-----4--------4-----------|-----------7-----9--------|-------------------|
-----------------------2--|-----7--------7-----------|-------------------|
--2--------2--------2-----|--2-----------------6-----|-------------------|
--------------------------|--------------------------|-------------------|
--------------------------|--------------------------|-------------------|


  W                   W                   W                   W                 
-------------------|-------------------|-------------------|-------------------|
-------------------|-------------------|-------------------|-------------------|
-------------------|-------------------|-------------------|-------------------|
-------------------|-------------------|-------------------|-------------------|
-------------------|-------------------|-------------------|-------------------|
-------------------|-------------------|-------------------|-------------------|


  W                   W                   W                   W                 
-------------------|-------------------|-------------------|-------------------|
-------------------|-------------------|-------------------|-------------------|
-------------------|-------------------|-------------------|-------------------|
-------------------|-------------------|-------------------|-------------------|
-------------------|-------------------|-------------------|-------------------|
-------------------|-------------------|-------------------|-------------------|


  E  E  E  E  E  E  E  E     E  E  E  E  E  E  E  E     E  E  E  E  E  E  Q     
--------7--------7--------|--------7--------7--------|--------5--2--------2----|
-----4--------4-----------|-----3--------3-----------|--------5--5-------------|
--------------------------|-----------------------2--|-----6-----------5--5----|
--2--------2--------2--2--|--2--------2--------2-----|--7-----------7----------|
--------------------------|--------------------------|-------------------------|
--------------------------|--------------------------|-------------------------|


  E  E  E   E  H           W                   E  E  E  E  E  E  E  E   
--------2h--4--L--------|--L----------------|--------7--------7--------|
------------------------|-------------------|-----4--------4-----------|
-----4------------------|-------------------|-----------------------2--|
--2---------------------|-------------------|--2--------2--------2-----|
------------------------|-------------------|--------------------------|
------------------------|-------------------|--------------------------|


   E   E  E  E  E  E  E  E     E  E  E  E  E  E  E  E   
--(7)-----7--------7--------|--------7--------7--------|
-------2--------2--------2--|-----4--------4-----------|
----------------------------|-----------------------2--|
---2---------2--------2-----|--2--------2--------2-----|
----------------------------|--------------------------|
----------------------------|--------------------------|


   E   E  E  E  E  E  E  E     E  E  E  E  E  E  E  E   
--(7)-----7--------7--------|--------7--------7--------|
-------2--------2--------2--|-----4--------4-----------|
----------------------------|-----------------------2--|
---2---------2--------2-----|--2--------2--------2-----|
----------------------------|--------------------------|
----------------------------|--------------------------|


  E  E  E  Q    Q    E     E  E  E  E  E  E  E  E     E  E  E  E  E  E  E  E   
--------7---------------|-----------------5--------|--------7--5-----5-----4--|
-----3------------------|--------5-----------5-----|-----5--------------------|
---------------------2--|-----6-----6--6--------6--|--5-----------5-----------|
--2--------4----6-------|--7-----------------------|--2-----------------2-----|
------------------------|--------------------------|--------------------------|
------------------------|--------------------------|--------------------------|


  E  E  E  E  E  E  E  E      E  E  E  E  E  E  E  E   
--------7--------7---------|--------7--------7--------|
--------9--------9---------|--------9--------9--------|
-----8--------8--------8S--|--7--7--------7--------7--|
--2--------2--------2------|-----------2--------2-----|
---------------------------|--------------------------|
---------------------------|--------------------------|


  E  E  E  E  E  E  E  E     E  E  E  E  E  E  E    E   
--------5--------5--------|--------5--------5----------|
--------7--------7--------|--------7--------7-----7g9--|
-----6--------6--------6--|-----5--------5-------------|
--2--------2--------2-----|--2--------2--------2-------|
--------------------------|----------------------------|
--------------------------|----------------------------|


  E  E  E  E  E  E  E  E      E  E  E  E  E  E  E  E   
--------7--------7---------|--------7--------7--------|
--------9--------9---------|--------9--------9--------|
-----8--------8--------8S--|--7--7--------7--------7--|
--2--------2--------2------|-----------2--------2-----|
---------------------------|--------------------------|
---------------------------|--------------------------|


  E  E  E  E  E  E  E  E     E  E  E  E  E  E  E    E   
--------5--------5--------|--------5--------5----------|
--------7--------7--------|--------7--------7-----7g9--|
-----6--------6--------6--|-----5--------5-------------|
--2--------2--------2-----|--2--------2--------2-------|
--------------------------|----------------------------|
--------------------------|----------------------------|


  E  E  E  E  E  E  E  E      E  E  E  E  E  E  E  E   
--------7--------7---------|--------7--------7--------|
--------9--------9---------|--------9--------9--------|
-----8--------8--------8S--|--7--7--------7--------7--|
--2--------2--------2------|-----------2--------2-----|
---------------------------|--------------------------|
---------------------------|--------------------------|


  E  E  E  E  E  E  E  E     E  E  E  E  E  E  E    E   
--------5--------5--------|--------5--------5----------|
--------7--------7--------|--------7--------7-----7g9--|
-----6--------6--------6--|-----5--------5-------------|
--2--------2--------2-----|--2--------2--------2-------|
--------------------------|----------------------------|
--------------------------|----------------------------|


  E  E  E  E  E  E  E  E      E  E  E  E  E  E  E  E   
--------7--------7---------|--------7--------7--------|
--------9--------9---------|--------9--------9--------|
-----8--------8--------8S--|--7--7--------7--------7--|
--2--------2--------2------|-----------2--------2-----|
---------------------------|--------------------------|
---------------------------|--------------------------|


  E  E  E  E  E  E  E  E     E  E  E  E  E  E  E    E   
--------5--------5--------|--------5--------5----------|
--------7--------7--------|--------7--------7-----7g9--|
-----6--------6--------6--|-----5--------5-------------|
--2--------2--------2-----|--2--------2--------2-------|
--------------------------|----------------------------|
--------------------------|----------------------------|


  E  E  E  E  E  E  E  E      E  E  E  E  E  E  E  E   
--------7--------7---------|--------7--------7--------|
--------9--------9---------|--------9--------9--------|
-----8--------8--------8S--|--7--7--------7--------7--|
--2--------2--------2------|-----------2--------2-----|
---------------------------|--------------------------|
---------------------------|--------------------------|


  E  E  E  E  E  E  E  E     E  E  E  E  E  E  E    E   
--------5--------5--------|--------5--------5----------|
--------7--------7--------|--------7--------7-----7g9--|
-----6--------6--------6--|-----5--------5-------------|
--2--------2--------2-----|--2--------2--------2-------|
--------------------------|----------------------------|
--------------------------|----------------------------|


  E  E  E  E  E  E  E  E      E  E  E  E  E  E  E  E   
--------7--------7---------|--------7--------7--------|
--------9--------9---------|--------9--------9--------|
-----8--------8--------8S--|--7--7--------7--------7--|
--2--------2--------2------|-----------2--------2-----|
---------------------------|--------------------------|
---------------------------|--------------------------|


  E  E  E  E  E  E  E  E     E  E  E  E  E  E  E    E   
--------5--------5--------|--------5--------5----------|
--------7--------7--------|--------7--------7-----7g9--|
-----6--------6--------6--|-----5--------5-------------|
--2--------2--------2-----|--2--------2--------2-------|
--------------------------|----------------------------|
--------------------------|----------------------------|


  Q    Q    E  E  Q      
-------4----5----------||
-----------------------||
-----------------------||
-----------------------||
-----------------------||
-----------------------||










Slide Guitar (Duane)
on acoustic guitars 2 means 0 becouse of the capo, everything is really -2 frets



      Q      Q      Q      Q         W                 
D ||--------------<>4----<>1----|--<>2----------------|
A ||-------<>2------------------|---------------------|
F#||----------------------------|---------------------|
D ||----------------------------|---------------------|
A ||----------------------------|---------------------|
D ||----------------------------|---------------------|


  E    Q      Q      Q      E     W                 
------------<>4----<>1----<>2--|--L----------------|
-----<>2-----------------------|-------------------|
-------------------------------|-------------------|
-------------------------------|-------------------|
-------------------------------|-------------------|
-------------------------------|-------------------|


  E    Q    E  E    Q      E     W                 
------------x-----<>1----<>2--|--L----------------|
-----<>2----------------------|-------------------|
------------------------------|-------------------|
------------------------------|-------------------|
------------------------------|-------------------|
------------------------------|-------------------|


  E    Q      Q      Q      E     W                 
------------<>4----<>1----<>2--|--L----------------|
-----<>2-----------------------|-------------------|
-------------------------------|-------------------|
-------------------------------|-------------------|
-------------------------------|-------------------|
-------------------------------|-------------------|


  E    Q      Q      Q      E     W                 
------------<>4----<>1----<>2--|--L----------------|
-----<>2-----------------------|-------------------|
-------------------------------|-------------------|
-------------------------------|-------------------|
-------------------------------|-------------------|
-------------------------------|-------------------|


  E    Q      Q      Q      E     W                 
------------<>4----<>1----<>2--|--L----------------|
-----<>2-----------------------|-------------------|
-------------------------------|-------------------|
-------------------------------|-------------------|
-------------------------------|-------------------|
-------------------------------|-------------------|


  E    Q      Q      Q      E     W                 
------------<>4----<>1----<>2--|--L----------------|
-----<>2-----------------------|-------------------|
-------------------------------|-------------------|
-------------------------------|-------------------|
-------------------------------|-------------------|
-------------------------------|-------------------|


  E    Q      Q      Q      E     W                 
------------<>4----<>1----<>2--|--L----------------|
-----<>2-----------------------|-------------------|
-------------------------------|-------------------|
-------------------------------|-------------------|
-------------------------------|-------------------|
-------------------------------|-------------------|


  E    Q      Q      Q      E     W                   Q      E    Q    E  Q     
------------<>4----<>1----<>2--|--L----------------|------------<>4----L-------|
-----<>2-----------------------|-------------------|-------<>2-----------------|
-------------------------------|-------------------|----------------------2----|
-------------------------------|-------------------|---------------------------|
-------------------------------|-------------------|---------------------------|
-------------------------------|-------------------|---------------------------|


   H.           E   E       H.              Q       H        Q.       E   
------------------------|------------------------|------------------<>6--|
--/7------------7S--9S--|--11------------11g9----|--7--------9-----------|
--/7--------------------|------------------------|-----------------------|
--/7--------------------|------------------------|--7--------9-----------|
------------------------|------------------------|-----------------------|
------------------------|------------------------|-----------------------|


  Q      Q      H           H.           E   E       W                 
--L----<>4----<>2--------|----------------------|---------------------|
-------------------------|--7------------7S--9--|--/11----------------|
-------------------------|----------------------|---------------------|
-------------------------|--7-------------------|---------------------|
-------------------------|----------------------|---------------------|
-------------------------|----------------------|---------------------|


  E  E  Q      Q    Q       Q.     E  H           E  E  H.            
-------------------------|---------------------|---------------------|
--------7----7g9----7----|--7------9--9--------|--------9------------|
-----7--L----------------|------------9--------|-----9---------------|
--7-----L----------------|--7------9--9--------|--9------------------|
-------------------------|---------------------|---------------------|
-------------------------|---------------------|---------------------|


    H.           Q       E    Q      Q      Q      E     W                 
--<>2-----------------|------------<>4----<>1----<>2--|--L----------------|
----------------------|-----<>2-----------------------|-------------------|
----------------------|-------------------------------|-------------------|
----------------------|-------------------------------|-------------------|
----------------------|-------------------------------|-------------------|
----------------------|-------------------------------|-------------------|


  H        Q.      E        Q      Q     H            W                 
------------------------|--------------------------|-------------------|
-----------7------(7)S--|--19S----18----14~--------|-------------------|
------------------------|--------------------------|-------------------|
------------------------|--------------------------|-------------------|
------------------------|--------------------------|-------------------|
------------------------|--------------------------|-------------------|


  E    Q      Q      Q      E     W                 
------------<>4----<>1----<>2--|--L----------------|
-----<>2-----------------------|-------------------|
-------------------------------|-------------------|
-------------------------------|-------------------|
-------------------------------|-------------------|
-------------------------------|-------------------|


  E    Q      Q      Q      E     W                 
------------<>4----<>1----<>2--|--L----------------|
-----<>2-----------------------|-------------------|
-------------------------------|-------------------|
-------------------------------|-------------------|
-------------------------------|-------------------|
-------------------------------|-------------------|


  E    Q      Q      Q      E     W                 
------------<>4----<>1----<>2--|--L----------------|
-----<>2-----------------------|-------------------|
-------------------------------|-------------------|
-------------------------------|-------------------|
-------------------------------|-------------------|
-------------------------------|-------------------|


  E    Q      Q      Q      E     W                 
------------<>4----<>1----<>2--|--L----------------|
-----<>2-----------------------|-------------------|
-------------------------------|-------------------|
-------------------------------|-------------------|
-------------------------------|-------------------|
-------------------------------|-------------------|


  E    Q      Q      Q      E     W                 
------------<>4----<>1----<>2--|--L----------------|
-----<>2-----------------------|-------------------|
-------------------------------|-------------------|
-------------------------------|-------------------|
-------------------------------|-------------------|
-------------------------------|-------------------|


  E    Q      Q      Q      E     W                 
------------<>4----<>1----<>2--|--L----------------|
-----<>2-----------------------|-------------------|
-------------------------------|-------------------|
-------------------------------|-------------------|
-------------------------------|-------------------|
-------------------------------|-------------------|


  E    Q      Q      Q      E     W                 
------------<>4----<>1----<>2--|--L----------------|
-----<>2-----------------------|-------------------|
-------------------------------|-------------------|
-------------------------------|-------------------|
-------------------------------|-------------------|
-------------------------------|-------------------|


  E    Q      Q      Q      E     W                 
------------<>4----<>1----<>2--|--L----------------|
-----<>2-----------------------|-------------------|
-------------------------------|-------------------|
-------------------------------|-------------------|
-------------------------------|-------------------|
-------------------------------|-------------------|


  E    Q      Q      Q      E     W                 
------------<>4----<>1----<>2--|--L----------------|
-----<>2-----------------------|-------------------|
-------------------------------|-------------------|
-------------------------------|-------------------|
-------------------------------|-------------------|
-------------------------------|-------------------|


  E    Q      Q      Q      E     W                 
------------<>4----<>1----<>2--|--L----------------|
-----<>2-----------------------|-------------------|
-------------------------------|-------------------|
-------------------------------|-------------------|
-------------------------------|-------------------|
-------------------------------|-------------------|


  E    Q      Q      Q      E     W                 
------------<>4----<>1----<>2--|--L----------------|
-----<>2-----------------------|-------------------|
-------------------------------|-------------------|
-------------------------------|-------------------|
-------------------------------|-------------------|
-------------------------------|-------------------|


  E    Q      Q      Q      E     W                 
------------<>4----<>1----<>2--|--L----------------|
-----<>2-----------------------|-------------------|
-------------------------------|-------------------|
-------------------------------|-------------------|
-------------------------------|-------------------|
-------------------------------|-------------------|


  E    Q      Q      Q      E     W                 
------------<>4----<>1----<>2--|--L----------------|
-----<>2-----------------------|-------------------|
-------------------------------|-------------------|
-------------------------------|-------------------|
-------------------------------|-------------------|
-------------------------------|-------------------|


  E    Q      Q      Q      E     W                 
------------<>4----<>1----<>2--|--L----------------|
-----<>2-----------------------|-------------------|
-------------------------------|-------------------|
-------------------------------|-------------------|
-------------------------------|-------------------|
-------------------------------|-------------------|


  E    Q      Q      Q      E     W                 
------------<>4----<>1----<>2--|--L----------------|
-----<>2-----------------------|-------------------|
-------------------------------|-------------------|
-------------------------------|-------------------|
-------------------------------|-------------------|
-------------------------------|-------------------|


  E    Q      Q      Q      E     W                  
------------<>4----<>1----<>2--|--L----------------||
-----<>2-----------------------|-------------------||
-------------------------------|-------------------||
-------------------------------|-------------------||
-------------------------------|-------------------||
-------------------------------|-------------------||




Duration Legend
---------------
W - whole
H - half
Q - quarter
E - 8th
S - 16th
T - 32nd
X - 64th
. - note dotted
|-n-|  - n-tuplets


Tablature Legend
----------------
L - tied note
x - dead note
g - grace note
(n) - ghost note
> - accentuded note
NH - natural harmonic
AH - artificial harmonic
TH - tapped harmonic
SH - semi harmonic
PH - pitch harmonic
h - hammer on
p - pull off
b - bend
br - bendRelease
pb - preBend
pbr - preBendRelease
brb - bendReleaseBend
\n/ - tremolo bar dip
\n - tremolo bar dive
-/n - tremolo bar Release up
/n\ - tremolo bar inverted dip
/n - tremolo bar return
-\n - tremolo bar Release down
S - shift slide
s - legato slide
/ -  slide into from below or out of upwards
\ -  slide into from above or out of downwards
~ - vibrato
W - wide vibrato
tr - trill
TP - tremolo picking
T - tapping
S - slap
P - pop
< - fade in
^ - brush up
v - brush down
comments
We did not receive enough feedback on this tab! Please rate:
print report bad tab
1 2 3 4 5
2 comments total.
0 reply
Bob_Dylan94 wrote on June 17 2010, 05:00 pm

You should have tabbed it relative to the capo, cause you can't minus 2 frets at all notes while you're playing. Chords would also have been nice.

0 reply
soundersfan530 wrote on September 7 2014, 06:06 pm

Lack of formatting. Tab should be relative to the capo rather than making the reader transpose as they go. They also missed the harmonics

I want to post or [tab]
guest
You may want to rate the tab now too:
select rating
Please do not post tabs as comments. Select "correction" instead!