Oops, an error
Loading. Please wait.

Bulletproof Scales Tab

ver1
ver1

Whole song

Interactive

More versions @911Tabs.com
8,516 views 3 this week
2 commentsread comments
1 2 3 4 5
excellent!
x 2
Autoscroll
+/-
esc
set tempo
stop
Contributor
Difficulty
advanced
Hey! There's an official Ultimate Guitar app which is ideal
for learning songs when you're away from computer. Get the app
WARNING: You are trying to view
                                    content from Ultimate-Guitar.com
                                    in an unauthorized application,
                                    which is prohibited.

                                    Please use an official Ultimate
                                    Guitar Tabs application for iPhone,
                                    iPad or Android to access legitimate
                                    chords, guitar, bass, and drum tabs
                                    from Ultimate-Guitar.com database.

                                    Type "ultimate guitar tabs" in Apple
                                    App Store's or Android Market's
                                    search to find the application.
                       --- D E S P I S E D    I C O N  ---
                             "Bulletproof Scales"


                            TABULATURE LEGEND:
                   " - tremolo             h - hammer on
                   ~ - vibrato             \ - slide down
                   p - pull off            / - slide down
                  tr - tremolo picking     ^ - pinch harmonics
                   = - sustained note      b - bend string
                p.m. - palm muting         t - tapping
                           <> - natural harmonics

TUNING: B [B, E, A, d, g, B]

[Riff 1 (x2)]
||---------------------------------------------6---------------|
||o----------------------------------------------5-----5-------|
||--------------------------------3----------4-----4-4---3-----|
||--2/3-2-5-4-4-4-4/5-4-7-6-6-6-2------------------------------|
||o-2/3-2-3-2-2-2-4/5-4-5-4-4-4--------4--3--------------------|
||----------------------------------0--2--1--------------------|
|         . . . .       . . . . . . .  .  .  . . . . . . .    |
||-------------------------------------------------------------|
||o--------------------------------------------4---------------|
||--------------------------------3--------------3-----3-------|
||--2/3-2-5-4-4-4-4/5-4-7-6-6-6-2------------2-----2-2---1-----|
||o-2/3-2-3-2-2-2-4/5-4-5-4-4-4--------4--3--------------------|
||----------------------------------0--2--1--------------------|
          . . . .       . . . . . . .  .  .  . . . . . . .

-|--------------------------------------------------------||
-|-------------------------------------------------------o||
-|-------------------------------3------------6-----------||
-|-2/3-2-5-4-4-4-4/5-4-7-6-6-6-2------------5-------------||
-|-2/3-2-3-2-2-2-4/5-4-5-4-4-4--------4--3------3--5--4--o||
-|---------------------------------0--2--1---------3--2---||
 |       . . . .       . . . . . . .  .  .  . . .  .  .    |
-|--------------------------------------------------------||
-|-------------------------------------------------------o||
-|-------------------------------3------------6-----------||
-|-2/3-2-5-4-4-4-4/5-4-7-6-6-6-2------------5-------------||
-|-2/3-2-3-2-2-2-4/5-4-5-4-4-4--------4--3------3--5--4--o||
-|---------------------------------0--2--1---------3--2---||
         . . . .       . . . . . . .  .  .  . . .  .  .

[Riff 2 (x2)]
||-----------------------------------------------------------||
||o---------------------------------------------------------o||
||-----------------------------------------------------------||
||--------------------------4--------------------------------||
||o-101098-6--5--7765-4--3--2--3--101098-6--5--7765-5-------o||
||---------6--5-------4--3-----1---------6--5-------3--------||
      .... .  .  .... .  .          .... .  .  .... .

[Outro 1]
|-----------------------------------------------------------|
|-----------------------------------------------------------|
|-----------------------------------------------------------|
|-------------------------4---------------------------------|
|-101098-6--5--7765-4--3--2--3--101098-6--5--7765-6-5-2-3---|
|--------6--5-------4--3-----1---------6--5-------4-3-0-1---|
    .... .  .  .... .  .        ...... .  .  .... . . .

-|---------------------------------------------------------------|
-|---------------------------------------------------------------|
-|---------------------------------------------------------------|
-|-------------------------4-------------------------------3-----|
-|-101098-6--5--7765-4--3--2--3--101098-6--5--7765-6-5-5-5-1--4--|
-|--------6--5-------4--3-----1---------6--5-------4-3-3-3----2--|
     .... .  .  .... .  .          .... .  .  .... . . . .

[Riff 3]
|--------------------------------------------------|
|--------------------------------------------------|
|--------------------------------------------------|
|-----------------------------3--4-----------------|
|-4-2-3-2-3--4-3----4-2-3-2-3-1--2-5--4-2-3-4-3-2--|
|-2-0-1-0-1--2-1----2-0-1-0-1-1--2-3--2-0-1-2-1-0--|
| . . . .           . . . . .         . . . . . . |
|--------------------------------------------------|
|--------------------------------------------------|
|--------------------------------------------------|
|-----------------------------3--4-----------------|
|-4-2-3-2-3--4-3----4-2-3-2-3-1--2-5--4-2-3-4-3-2--|
|-2-0-1-0-1--2-1----2-0-1-0-1-1--2-3--2-0-1-2-1-0--|
  . . . .           . . . . .         . . . . . .

-|-------------------------------------------------------|
-|------------------------------7---------7--------------|
-|-------------------------5------5--5------5------------|
-|------------------------------4---------4--------------|
-|-4-2-3-2-3--4-3-------3--3--3---3--3--3---3--5-4-5-----|
-|-2-0-1-0-1--2-1---1-1-1----------------------3-2-3-----|
 | . . . .          . .       .         .      . . .    |
-|-------------------------------------------------------|
-|-------------------------------------------------------|
-|------------------------------6---------6--------------|
-|-------------------------5------5--5------5------------|
-|-4-2-3-2-3--4-3-------3-------4---------4----5-4-5-----|
-|-2-0-1-0-1--2-1---1-1-1--3--3---3--3--3---3--3-2-3-----|
   . . . .          . .       .         .      . . .

-|--------------------------------------------------|
-|--------------------------------------------------|
-|--------------------------------------------------|
-|-----------------------------3--4-----------------|
-|-4-2-3-2-3--4-3----4-2-3-2-3-1--2-5--4-2-3-4-3-2--|
-|-2-0-1-0-1--2-1----2-0-1-0-1-1--2-3--2-0-1-2-1-0--|
 | . . . .           . . . . .         . . . . . . |
-|--------------------------------------------------|
-|--------------------------------------------------|
-|--------------------------------------------------|
-|-----------------------------3--4-----------------|
-|-4-2-3-2-3--4-3----4-2-3-2-3-1--2-5--4-2-3-4-3-2--|
-|-2-0-1-0-1--2-1----2-0-1-0-1-1--2-3--2-0-1-2-1-0--|
   . . . .           . . . . .         . . . . . .

-|--------------------------------------------------|
-|------------------------------7----7--8-----------|
-|-------------------------5------5-----------------|
-|------------------------------4----4--5-----------|
-|-4-2-3-2-3--4-3-------3--3--3---3--------5-4-5----|
-|-2-0-1-0-1--2-1---1-1-1------------------3-2-3----|
 | . . . .          . .       .            . . .    |
-|--------------------------------------------------|
-|--------------------------------------------------|
-|------------------------------6----6--7-----------|
-|-------------------------5------5-----------------|
-|-4-2-3-2-3--4-3-------3-------4----4--5--5-4-5----|
-|-2-0-1-0-1--2-1---1-1-1--3--3---3--------3-2-3----|
   . . . . .        . .       .            . . .

[Riff 4a]
|-----------------------------------------------|
|-----------------------------------------------|
|-----------------------------------------------|
|-------------------------------------------3---|
|-4-3-2-4-3-2-4-3-2-4-3-2-4-3-2-4-3-2-4-3-2-----|
|-------------------------------------------1---|
| . . . . . . . . . . . . . . . . . . . . .    |
|-----------------------------------------------|
|-----------------------------------------------|
|-----------------------------------------------|
|-------------------------------------------3---|
|-----------------------------------------------|
|-2-1-0-2-1-0-2-1-0-2-1-0-2-1-0-2-1-0-2-1-0-1---|
  . . . . . . . . . . . . . . . . . . . . .

-|------------------------------------------|
-|------------------------------------------|
-|------------------------------------------|
-|------------------------------------------|
-|-4-3-2-4-3-2-4-3-2-4-3-2------4-------4---|
-|-------------------------0--1-4--0--1-4---|
 | . . . . . . . . . . . . .  .    .  .    |
-|------------------------------------------|
-|------------------------------------------|
-|------------------------------------------|
-|------------------------------------------|
-|------------------------------4-------4---|
-|-2-1-0-2-1-0-2-1-0-2-1-0-0--1-4--0--1-4---|
   . . . . . . . . . . . . .  .    .  .

-|-----------------------------------------------|
-|-----------------------------------------------|
-|-----------------------------------------------|
-|-------------------------------------------3---|
-|-4-3-2-4-3-2-4-3-2-4-3-2-4-3-2-4-3-2-4-3-2-----|
-|-------------------------------------------1---|
 | . . . . . . . . . . . . . . . . . . . . .    |
-|-----------------------------------------------|
-|-----------------------------------------------|
-|-----------------------------------------------|
-|-------------------------------------------3---|
-|-----------------------------------------------|
-|-2-1-0-2-1-0-2-1-0-2-1-0-2-1-0-2-1-0-2-1-0-1---|
   . . . . . . . . . . . . . . . . . . . . .

-|------------------------------------------|
-|------------------------------------------|
-|------------------------------------------|
-|------------------------------------------|
-|-4-3-2-4-3-2-4-3-2-4-3-2------4-5--4--4-4-|
-|-------------------------0--1-4-3--2--2-2-|
 | . . . . . . . . . . . . .  .   .  .  . . |
-|------------------------------------------|
-|------------------------------------------|
-|------------------------------------------|
-|------------------------------------------|
-|------------------------------4-5--4--4-4-|
-|-2-1-0-2-1-0-2-1-0-2-1-0-0--1-4-3--2--2-2-|
   . . . . . . . . . . . . .  .   .  .  . .

[Riff 4b]
|-----------------------------------------------|
|-----------------------------------------------|
|-----------------------------------------------|
|-------------------------------------------3---|
|-4-3-2-4-3-2-4-3-2-4-3-2-4-3-2-4-3-2-4-3-2-3---|
|-2-1-0-2-1-0-2-1-0-2-1-0-2-1-0-2-1-2-2-1-0-1---|
| . . . . . . . . . . . . . . . . . . . . .    |
|-----------------------------------------------|
|-----------------------------------------------|
|-----------------------------------------------|
|-------------------------------------------3---|
|-4-3-2-4-3-2-4-3-2-4-3-2-4-3-2-4-3-2-4-3-2-3---|
|-2-1-0-2-1-0-2-1-0-2-1-0-2-1-0-2-1-2-2-1-0-1---|
  . . . . . . . . . . . . . . . . . . . . .

-|------------------------------------------|
-|------------------------------------------|
-|------------------------------------------|
-|------------------------------------------|
-|-4-3-2-4-3-2-4-3-2-4-3-2------4-------4---|
-|-2-1-0-2-1-0-2-1-0-2-1-0-0--1-4--0--1-4---|
 | . . . . . . . . . . . . .  .    .  .    |
-|------------------------------------------|
-|------------------------------------------|
-|------------------------------------------|
-|------------------------------------------|
-|-4-3-2-4-3-2-4-3-2-4-3-2------4-------4---|
-|-2-1-0-2-1-0-2-1-0-2-1-0-0--1-4--0--1-4---|
   . . . . . . . . . . . . .  .    .  .

-|-----------------------------------------------|
-|-----------------------------------------------|
-|-----------------------------------------------|
-|-------------------------------------------3---|
-|-4-3-2-4-3-2-4-3-2-4-3-2-4-3-2-4-3-2-4-3-2-3---|
-|-2-1-0-2-1-0-2-1-0-2-1-0-2-1-0-2-1-0-2-1-0-1---|
 | . . . . . . . . . . . . . . . . . . . . .    |
-|-----------------------------------------------|
-|-----------------------------------------------|
-|-----------------------------------------------|
-|-------------------------------------------3---|
-|-4-3-2-4-3-2-4-3-2-4-3-2-4-3-2-4-3-2-4-3-2-3---|
-|-2-1-0-2-1-0-2-1-0-2-1-0-2-1-0-2-1-0-2-1-0-1---|
   . . . . . . . . . . . . . . . . . . . . .

-|------------------------------------------|
-|------------------------------------------|
-|------------------------------------------|
-|------------------------------------------|
-|-4-3-2-4-3-2-4-3-2-4-3-2------4-5--4--4-4-|
-|-2-1-0-2-1-0-2-1-0-2-1-0-0--1-4-3--2--2-2-|
 | . . . . . . . . . . . . .  .   .  .  . . |
-|------------------------------------------|
-|------------------------------------------|
-|------------------------------------------|
-|------------------------------------------|
-|-4-3-2-4-3-2-4-3-2-4-3-2------4-5--4--4-4-|
-|-2-1-0-2-1-0-2-1-0-2-1-0-0--1-4-3--2--2-2-|
   . . . . . . . . . . . . .  .   .  .  . .

[RIFF 3]

[Riff 5 (x2)]
||---------------------------------------------------|
||o--------------------------------------------------|
||------------4---------------------4----------------|
||-----6--5------5--^-----5--6--5------5--^----------|
||o-----------2-----2~~-------------2-----2~~-2-5-5--|
||--0--4--3-0----3------0-3--4--3-0----3------0-3-3--|
|                                             . . . |
||---------------------------------------------------|
||o--------------------------------------------------|
||-----4--3---7--3--------3--4--3---7--3-------------|
||------------------^---------------------^----------|
||o----2--1---5--1--2~~---1--2--1---5--1--2~~-2-5-5--|
||--0-------0-----------0---------0-----------0-3-3--|
                                              . . .

-|------------------------------------------------------------||
-|-----------------------------------------------------------o||
-|------------------------------------------------------------||
-|------------------------------------------------------------||
-|-2---22-5-3-2-3--6-3--22222--222--22-6-3-2-3--6-3--3333-3--o||
-|-0---00-3-1-0-1--4-1--00000--000--00-4-1-0-1--4-1--1111-1---||
 | .   .. . . . .  . .  .....  ...  .. . . . .  . .  .... .    |
-|------------------------------------------------------------||
-|-----------------------------------------------------------o||
-|------------------------------------------------------------||
-|------------------------------------------------------------||
-|-2---22-5-3-2-3--6-3--22222--222--22-6-3-2-3--6-3--3333-3--o||
-|-0---00-3-1-0-1--4-1--00000--000--00-4-1-0-1--4-1--1111-1---||
   .   .. . . . .  . .  .....  ...  .. . . . .  . .  .... .

[Riff 6]
|--------------------------------------------------------|
|--------------------------------------------------------|
|--------------------------------------------------------|
|--------------------------------------------------------|
|-2----6-3-2-3--6-3----------2----6-3-2-3--6-3-----------|
|-0--0-4-1-0-1--4-1--0-0-0-0-0--0-4-1-0-1--4-1--0-0-0-0--|
|                    . . . .                    . . . . |
|--------------------------------------------------------|
|--------------------------------------------------------|
|--------------------------------------------------------|
|--------------------------------------------------------|
|-2----6-3-2-3--6-3----------2----6-3-2-3--6-3-----------|
|-0--0-4-1-0-1--4-1--0-0-0-0-0--0-4-1-0-1--4-1--0-0-0-0--|
                     . . . .                    . . . .

-|-------------------------------------------------|
-|-------------------------------------------------|
-|-------------------------------------------------|
-|-------------------------------------------------|
-|-2----6-3-2-3--6-3----------2----6-3-2-3--6-3----|
-|-0--0-4-1-0-1--4-1--0-0-0-0-0--0-4-1-0-1--4-1----|
 |                    . . . .      . . . .  . .    |
-|-------------------------------------------------|
-|-------------------------------------------------|
-|-------------------------------------------------|
-|-------------------------------------------------|
-|-2----6-3-2-3--6-3----------2----6-3-2-3--6-3----|
-|-0--0-4-1-0-1--4-1--0-0-0-0-0--0-4-1-0-1--4-1----|
                      . . . .      . . . .  . .
[Outro 2]
|----------------------------------14-14-14-14-----------------|
|----------------------------------13-13-13-13-----------------|
|----------------------------------11-11-11-11-----------------|
|--------------------------------------------------------------|
|----------------------7-------6-------------------7-------6---|
|-4444333366665555-7-8---8-7-8---7-------------7-8---8-7-8---7-|
| ................ . . . . . . . .             . . . . . . . . |
|----------------------------------14-14-14-14-----------------|
|----------------------------------13-13-13-13-----------------|
|----------------------------------11-11-11-11-----------------|
|--------------------------------------------------7-------6---|
|----------------------------------------------7-8---8-7-8---7-|
|--------------------------------------------------------------|
                                               . . . . . . . .
[Riff 7a (x2)]
||-----------------------------------14-14-14-14------------------||
||o----------------------------------13-13-13-13-----------------o||
||-----------------------------------11-11-11-11------------------||
||----------------------------------------------------------------||
||o----------------------7-------6-------------------7-------6---o||
||--4444333366665555-7-8---8-7-8---7-------------7-8---8-7-8---7--||
|   ................ . . . . . . . .             . . . . . . . .   |
||-----------------------------------14-14-14-14------------------||
||o----------------------------------13-13-13-13-----------------o||
||-----------------------------------11-11-11-11------------------||
||-----------------------7-------6-------------------7-------6----||
||o------------------7-8---8-7-8---7-------------7-8---8-7-8---7-o||
||--4444333366665555----------------------------------------------||
    ................ . . . . . . . .             . . . . . . . .

[Riff 7ba (x2)]
||-----------------------------------14-14-14-14------------------||
||o----------------------------------13-13-13-13-----------------o||
||-----------------------------------11-11-11-11------------------||
||--7777666699998888----------------------------------------------||
||o----------------------7-------6-------------------7-------6---o||
||-------------------7-8---8-7-8---7-------------7-8---8-7-8---7--||
|   ................ . . . . . . . .             . . . . . . . .   |
||-----------------------------------14-14-14-14------------------||
||o----------------------------------13-13-13-13-----------------o||
||-----------------------------------11-11-11-11------------------||
||-----------------------7-------6-------------------7-------6----||
||o-5555333366665555-7-8---8-7-8---7-------------7-8---8-7-8---7-o||
||----------------------------------------------------------------||
    ................ . . . . . . . .             . . . . . . . .

[RIFF 1 (x2)]

[Ending]
|----------------------------------------------------|
|----------------------------------------------------|
|---3-----------6------------3-----------6-----------|
|-2-----------5------------2-----------5-------------|
|--------4--3-----3--5--4---------4--3-----3--5--4---|
|-----0--2--1--------3--2------0--2--1--------3--2---|
      .  .  .     .  .  .      .  .  .     .  .  .

-|-------------------------------------------------------|
-|-------------------------------------------------------|
-|-------------------------------------------------------|
-|----------------------------------------3--1--4--------|
-|---1------------4------------1----2--1--3--1--2--6--5--|
-|-0---0~-2~-1~-0---1~-3~-2~-0---0--2--1-----------4--3--|
                                                .  .  .

End Of Song
comments
We did not receive enough feedback on this tab! Please rate:
print report bad tab
1 2 3 4 5
2 comments total.
0 reply
nolanxxx wrote on December 14 2007, 06:30 am

i can't really get riff 2, but oh well, you should powertab this, or someone who sees this who is good(cause i'm not,
look at my bearing the serpants lamb by JFAC tab ahahaha) should do it

0 reply
bloodzone wrote on July 10 2008, 01:34 pm

There is a GOD!!!! You don't know what a reilefe it is to see the correct tunning used instead of adding a F# where the g should be, thank you! your one of the few who gets it!

I want to post or [tab]
guest
You may want to rate the tab now too:
select rating
Please do not post tabs as comments. Select "correction" instead!