Oops, an error
Loading. Please wait.

Day Of Mourning Tab

6,217 views 3 this week
no commentswrite comment
1 2 3 4 5
poor
x 3
Autoscroll
+/-
esc
set tempo
stop
Contributor
Difficulty
Tuning
intermediate
B F# B E G# C#
WARNING: You are trying to view
                                    content from Ultimate-Guitar.com
                                    in an unauthorized application,
                                    which is prohibited.

                                    Please use an official Ultimate
                                    Guitar Tabs application for iPhone,
                                    iPad or Android to access legitimate
                                    chords, guitar, bass, and drum tabs
                                    from Ultimate-Guitar.com database.

                                    Type "ultimate guitar tabs" in Apple
                                    App Store's or Android Market's
                                    search to find the application.
                             Day of Mourning - Despised Icon

Tabbed by:symgates6
Email:michaud_foot@hotmail.com

Tuning:drop B

e|---------------------------------------------------------------------|
B|---------------------------------------------------------------------|
G|---------------------------------------------------------------------|
D|------------------------------------------------------6h7p6----------|
A|--8---5h7----0-----8---5h7-----------------6h9p6--------------6h9p6--|
E|-------------------------------------6-------------------------------|

e|------------------------------------------------------------------|
B|------------------------------------------------------------------|
G|------------------------------------------------------------------|
D|------------------------------------------------------------------|
A|---8---5h7---8---5h7----------------------8h11p8-------------6p5--|
E|------------------------------------8--------------8/6------------|

e|-------------------------------------------------|
B|-------------------------------------------------|
G|-------------------------------------------------|
D|-------------------------------------------------|
A|---8---5h7---8---5h7---------------------8h11p8--|
E|------------------------------------8------------|

e|---------------------------------------------------------------------------------|
B|---------------------------------------------------------------------------------|
G|---------------------------------------------------------------------------------|
D|----7----------2----------3------------------------------------------------------|
A|----10---------5----------6------------------------------------------------------|
E|----8----------3----------4------------------------------------------------------|

e|-----------------------------------------------------------|
B|-----------------------------------------------------------|
G|-----------------------------------------------------------|
D|-----------------------------------------------------------|
A|----------8h11p8-----------------5h8p5--------------3h6p3--|
E|----8---------------------5------------------3-------------|

All the beginning X2

e|------------------------------------------------------------------------|
B|------------------------------------------------------------------------|
G|------------------------------------------------------------------------|
D|------------------------------------------------------------------------|
A|-----9-9-5-5-------4-4-8-8---------------------11-----10-----11-----10--|
E|-----------------------------------------0-0-------0------0------0------|

e|------------------------------------------------------------|
B|------------------------------------------------------------|
G|------------------------------------------------------------|
D|------------------------------------------------------------|
A|-----------10--0--13--0--10---------------13--0--10--0--13--|
E|----0-0---------------------------0-0-----------------------|

e|----------------------------------------------------------------------|
B|----------------------------------------------------------------------|
G|----------------------------------------------------------------------|
D|-------------------------------------------------------5h6p5----------|
A|------------0h10h12h13p12p10--/6h4p6----------4h5p4------------4h5p4--|
E|----0-0--------------------------------6------------------------------|

e|-----------------------------------------------------------------------|
B|-----------------------------------------------------------------------|
G|-----------------------------------------------------------------------|
D|-----------------------------------------------------------------------|
A|-------------------------------------------------7--5--8--------4------|
E|---2222222222222222222222222222222222222-------------------5--------7--|

e|---------------------------------------------------------------------------|
B|---------------------------------------------------------------------------|
G|---------------------------------------------------------------------------|
D|---------------------------------------------------------------------------|
A|---------11------10------11------10-----11-----10--------10--0--13--0--10--|
E|---0-0-------0--------0------0-------0------0--------0---------------------|

e|-----------------------------------------------------------------|
B|-----------------------------------------------------------------|
G|-----------------------------------------------------------------|
D|-----------------------------------------------------------------|
A|--------13--0--10--0--13-------------0h10h12h13p12p10p0--/6p4h6--|
E|--0-0---------------------------0-0------------------------------|

e|---------------------------------------------------------------------------|
B|---------------------------------------------------------------------------|
G|---------------------------------------------------------------------------|
D|------------------5h6p5----------------------------------------------------|
A|----------4h5p4-----------4h5p4--------------------------------------------|
E|---6---------------------------------222222222222222222222222222222222222--|

e|---------------------------------------------------------------------------------|
B|---------------------------------------------------------------------------------|
G|---------------------------------------------------------------------------------|
D|---------------------------------------------------------------------------------|
A|----7--5--8-----4----------------------------------------------------------------|
E|-------------5-----7-------------------------------------------------------------|

e|------------------------------------------------------------------------------------------------|
B|------------------------------------------------------------------------------------------------|
G|--9999999999999--10101010101010101011010--999999999999999--1010101010101010--9999999999999--77--|
D|------------------------------------------------------------------------------------------------|
A|------------------------------------------------------------------------------------------------|
E|------------------------------------------------------------------------------------------------|

e|----------------------------------------------------------------------------------------|
B|--7-7--9999999999999999999--1010101010101010--999999999--1010101010101010--99999999999--|
G|----------------------------------------------------------------------------------------|
D|----------------------------------------------------------------------------------------|
A|----------------------------------------------------------------------------------------|
E|----------------------------------------------------------------------------------------|

e|--------------------------------------------------------------------|
B|--------------------------------------------------------------------|
G|--7-7--999999999-1010101010101010--999999999--10101010101010101010--|
D|--------------------------------------------------------------------|
A|--------------------------------------------------------------------|
E|--------------------------------------------------------------------|

e|-------------------------------------------------------------------------------------|
B|-------------------------------------------------------------------------------------|
G|-------------------------------------------------------------------------------------|
D|--6--7--------4-6-7-4-6-7------------------------------------------------------------|
A|--------6--7---------------6--7------------------------------------------------------|
E|---------------------------------4--6------------------------------------------------|

e|-----------------------------------------------------------------------|
B|-----------------------------------------------------------------------|
G|--9-----9--------------------------------------------------------------|
D|-----6-------------6--9------------------------------------------------|
A|----------------------------------------7--9--10--9--7-------9---------|
E|----------0-0-0-6-----------0-0-0---10-------------------10-----10--7--|

e|--------------------------------------------------------|
B|--------------------------------------------------------|
G|--999999--101010101010101--999999999--101010101010------|
D|----------------------------------------------------77--|
A|--------------------------------------------------------|
E|--------------------------------------------------------|

e|----------------------------------------------------------------------------|
B|--99999999--10101010101010--99999999999--1010101010101010--99999999999--77--|
G|----------------------------------------------------------------------------|
D|----------------------------------------------------------------------------|
A|----------------------------------------------------------------------------|
E|----------------------------------------------------------------------------|

e|--------------------------------------------------------------|
B|--------------------------------------------------------------|
G|-999999999--10101010101010--99999999999--101010101010101------|
D|---------------------------------------------------------7-7--|
A|--------------------------------------------------------------|
E|--------------------------------------------------------------|

e|-------------------------------------------------------------------------------------|
B|-------------------------------------------------------------------------------------|
G|-------------------------------------------------------------------------------------|
D|---6--7--------4--6--7--4--6--7------------------------------------------------------|
A|---------6--7--------------------6--7------------------------------------------------|
E|---------------------------------------4--6------------------------------------------|

e|--------------------------------------------------------------------|
B|--------------------------------------------------------------------|
G|--9-----9-----------------------------------------------------------|
D|-----6--------------6--9--------------------------------------------|
A|---------------------------------------7-9-10-7-9-10------9---------|
E|-----------0-0-0-6---------0-0-0--10------------------10-----10--7--|

e|-----------------------------------------------------------------------------|
B|-----------------------------------------------------------------------------|
G|-----------------------------------------------------------------------------|
D|-----------------------------------------------------------------------------|
A|--9-9-9-9-9-9-9-9-9---9-7-9-10-9--7-7-7-7-7-7-7-7--7-5-7-8-7--9-9-9-9-9-9-9--|

E|-------------------------|
e|-------------------------|
B|-------------------------|
G|-------------------------|
D|-------------------------|
A|-------------------------|
E|---1-1111-1-1-11-111111--|

the song keeps going but all the riffs are there so just listen to the song and 
fill the remaining tabs

| /  slide up
| \  slide down
| h  hammer-on
| p  pull-off
| ~  vibrato
| +  harmonic
| x  Mute note
===============================================================================
comments
We did not receive enough feedback on this tab! Please rate:
print report bad tab
1 2 3 4 5
I want to post or [tab]
guest
You may want to rate the tab now too:
select rating
Please do not post tabs as comments. Select "correction" instead!