Oops, an error
Loading. Please wait.

My Darkness Tab

ver1
ver1

Intro

Whole song

More versions @911Tabs.com
8,368 views 6 this week
3 commentsread comments
1 2 3 4 5
excellent!
x 8
Autoscroll
+/-
esc
set tempo
stop
Contributor
Difficulty
Tuning
intermediate
C G C F A D
WARNING: You are trying to view
                                    content from Ultimate-Guitar.com
                                    in an unauthorized application,
                                    which is prohibited.

                                    Please use an official Ultimate
                                    Guitar Tabs application for iPhone,
                                    iPad or Android to access legitimate
                                    chords, guitar, bass, and drum tabs
                                    from Ultimate-Guitar.com database.

                                    Type "ultimate guitar tabs" in Apple
                                    App Store's or Android Market's
                                    search to find the application.
#----------------------------------PLEASE NOTE---------------------------------#
#This file is the author's own work and represents their interpretation of the #
#song. You may only use this file for private study, scholarship, or research. #
#------------------------------------------------------------------------------#








 

 

Gtr I (C G C F A D) - 'Lead'
Gtr II (C G C F A D) - 'Rhythm'
Gtr III (C G C F A D) - 'Left Channel'
Gtr IV (C G C F A D) - 'Right Channel'


 Intro
  Q=180
 4/4
            Gtr I
  H..       E   +E  E   E E E E E E   E    E  E E E E E E
|-------------|---------------------|---------------------|
|-------------|---------------------|---------------------|
|-------------|---------------------|---------------------|
|-----------0-|-(0)-----------------|-5---/7-\5---------8-|
|-----------0-|-(0)-x---8---7---8---|-------------8---7-8-|
|-----------0-|-(0)-x---------------|-------------------8-|
|
|           Gtr II
| H..       E   +E  H..               H..               E
|-------------|---------------------|---------------------|
|-------------|---------------------|---------------------|
|-------------|---------------------|---------------------|
|-----------0-|-(0)-----------------|-------------------8-|
|-----------0-|-(0)-----------------|-------------------8-|
|-----------0-|-(0)-----------------|-------------------8-|


  +Q   S S E E E E E   +E   E E E E E E E
|--------------------|---------------------|
|--------------------|---------------------|
|--------------------|---------------------|
|-(8)--5-7-5-------5-|-(5)------2-3-2---0--|
|-(8)--------8-7-5-5-|-(5)--3-5-------5-0--|
|-(8)--------------5-|-(5)--------------0--|
|
| +Q   H         E E   +H..             E
|--------------------|---------------------|
|--------------------|---------------------|
|--------------------|---------------------|
|-(8)--------------5-|-(5)--------------0--|
|-(8)--------------5-|-(5)--------------0--|
|-(8)--------------5-|-(5)--------------0--|


  +E  E    E E  E E E E    E   E E E E E E E
|-----------------------|--------------------|
|-----------------------|--------------------|
|-----------------------|--------------------|
|-(0)-----12-0-10-0-8-0-|-10---0-8-0-7-5-3-8-|
|-(0)-x-----------------|------------------8-|
|-(0)-x-----------------|------------------8-|
|
| +E  H..                  H..             E
|-----------------------|--------------------|
|-----------------------|--------------------|
|-----------------------|--------------------|
|-(0)-------------------|------------------8-|
|-(0)-------------------|------------------8-|
|-(0)-------------------|------------------8-|


  +Q    S S E E E E E   +E  E E E E E E E
|---------------------|--------------------|
|---------------------|--------------------|
|---------------------|--------------------|
|-(8)---5-7-5-------5-|-(5)-----2-3-2---0--|
|-(8)---------8-7-5-5-|-(5)-3-5-------5-0--|
|-(8)---------------5-|-(5)-------------0--|
|
| +H..              E   +E  E E E E E E E
|---------------------|--------------------|
|---------------------|--------------------|
|---------------------|---------0-2-0------|
|-(8)---------------5-|-(5)-2-3-------3-0--|
|-(8)---------------5-|-(5)-------------0--|
|-(8)---------------5-|-(5)-------------0--|


 Verse
  +E  E E E E E E E   E  E  E E E E E E
|-------------------|-------------------|
|-------------------|-------------------|
|-------------------|-------------------|
|-(0)---------------|-5-/7-\5---------8-|
|-(0)-x-8---7---8---|-----------8---7-8-|
|-(0)-x-------------|-----------------8-|
|
| +E  E E E E E E E   E  E  E E E E E E
|-------------------|-------------------|
|-------------------|-------------------|
|-------------------|-3-/5-\3-----------|
|-(0)---7---5---7---|-----------7---5-8-|
|-(0)-x-------------|-----------------8-|
|-(0)-x-------------|-----------------8-|


  +Q   S S E E E E E   +E  E E E E E E E
|--------------------|--------------------|
|--------------------|--------------------|
|--------------------|--------------------|
|-(8)--5-7-5-------5-|-(5)-----2-3-2---0--|
|-(8)--------8-7-5-5-|-(5)-3-5-------5-0--|
|-(8)--------------5-|-(5)-------------0--|
|
| +Q   S S E E E E E   +E  E E E E E E E
|--------------------|--------------------|
|--------------------|--------------------|
|------3-5-3---------|---------0-2-0------|
|-(8)--------7-5-3-5-|-(5)-2-3-------3-0--|
|-(8)--------------5-|-(5)-------------0--|
|-(8)--------------5-|-(5)-------------0--|


  +E  E  E E  E E  E E    E E  E E  E E E E
|----------------------|--------------------|
|----------------------|--------------------|
|----------------------|--------------------|
|-(0)---12-0-10-0--8-0-|-10-0--8-0--7-5-3-8-|
|-(0)-x----------------|------------------8-|
|-(0)-x----------------|------------------8-|
|
| +E  E  E E  E E  E E    E E  E E  E E E E
|----------------------|--------------------|
|----------------------|--------------------|
|----------------------|--------------------|
|-(0)---15-0-14-0-12-0-|-14-0-12-0-10-8-7-8-|
|-(0)-x----------------|------------------8-|
|-(0)-x----------------|------------------8-|


  +Q   S S E E E E E   +E  E E E E E E E
|--------------------|--------------------|
|--------------------|--------------------|
|--------------------|--------------------|
|-(8)--5-7-5-------5-|-(5)-----2-3-2---0--|
|-(8)--------8-7-5-5-|-(5)-3-5-------5-0--|
|-(8)--------------5-|-(5)-------------0--|
|
| +Q   S S E E E E E   +E  E E E E E E E
|--------------------|--------------------|
|--------------------|--------------------|
|------3-5-3---------|---------0-2-0------|
|-(8)--------7-5-3-5-|-(5)-2-3-------3-0--|
|-(8)--------------5-|-(5)-------------0--|
|-(8)--------------5-|-(5)-------------0--|


  +E  E E E E E E E   E  E  E E E E E E
|-------------------|-------------------|
|-------------------|-------------------|
|-------------------|-------------------|
|-(0)---------------|-5-/7-\5---------8-|
|-(0)-x-8---7---8---|-----------8---7-8-|
|-(0)-x-------------|-----------------8-|
|
| +E  E E E E E E E   E  E  E E E E E E
|-------------------|-------------------|
|-------------------|-------------------|
|-------------------|-3-/5-\3-----------|
|-(0)---7---5---7---|-----------7---5-8-|
|-(0)-x-------------|-----------------8-|
|-(0)-x-------------|-----------------8-|


  +Q   S S E E E E E   +E  E E E E E E E
|--------------------|--------------------|
|--------------------|--------------------|
|--------------------|--------------------|
|-(8)--5-7-5-------5-|-(5)-----2-3-2---0--|
|-(8)--------8-7-5-5-|-(5)-3-5-------5-0--|
|-(8)--------------5-|-(5)-------------0--|
|
| +Q   S S E E E E E   +E  E E E E E E E
|--------------------|--------------------|
|--------------------|--------------------|
|------3-5-3---------|---------0-2-0------|
|-(8)--------7-5-3-5-|-(5)-2-3-------3-0--|
|-(8)--------------5-|-(5)-------------0--|
|-(8)--------------5-|-(5)-------------0--|


  +E  E  E E  E E  E E    E E  E E  E E E E
|----------------------|--------------------|
|----------------------|--------------------|
|----------------------|--------------------|
|-(0)---12-0-10-0--8-0-|-10-0--8-0--7-5-3-8-|
|-(0)-x----------------|------------------8-|
|-(0)-x----------------|------------------8-|
|
| +E  E  E E  E E  E E    E E  E E  E E E E
|----------------------|--------------------|
|----------------------|--------------------|
|----------------------|--------------------|
|-(0)---15-0-14-0-12-0-|-14-0-12-0-10-8-7-8-|
|-(0)-x----------------|------------------8-|
|-(0)-x----------------|------------------8-|


                      6/4
                                 PM--|     PM--|
  +Q   S S E E E E E   +E  E E E S S E E E S S E E  E
|--------------------|---------------------------------|
|--------------------|---------------------------------|
|--------------------|---------------------------------|
|-(8)--5-7-5-------5-|-(5)-----2-----------------------|
|-(8)--------8-7-5-5-|-(5)-3-5---0-0-0-7-8-0-0-0-8-10--|
|-(8)--------------5-|-(5)-------0-0-0-----0-0-0-------|
|
|                                PM--|     PM--|
| +Q   S S E E E E E   +E  E E E S S E E E S S E Q
|--------------------|---------------------------------|
|--------------------|---------------------------------|
|------3-5-3---------|---------0-----------------------|
|-(8)--------7-5-3-5-|-(5)-2-3---------5-7-------------|
|-(8)--------------5-|-(5)-------0-0-0-----0-0-0-------|
|-(8)--------------5-|-(5)-------0-0-0-----0-0-0-------|


 Verse Part 2
 4/4
  PM--|
  S S E E E E E E E   E E E  E E E E E
|-------------------|------------------|
|-------------------|------------------|
|-------------------|------------------|
|-------------------|------------------|
|-0-0-0-5-----8---7-|---8---10---7---8-|
|-0-0-0---8-x-------|------------------|
|
| PM--|
| S S E E E E E E E   E E E  E E E E E
|-------------------|------------------|
|-------------------|------------------|
|-------------------|------------------|
|-------3-----7---5-|---7----8---5---7-|
|-0-0-0---5---------|------------------|
|-0-0-0-----x-------|------------------|


                        PM---|        PM--|
  E  E E  E E E E  E    S  S  E  E  E S S S S E  E
|--------------------|------------------------------|
|--------------------|------------------------------|
|--------------------|------------------------------|
|--------------------|------------------------------|
|---10---12---8---10-|----------10s12-0-0-0---8-10--|
|--------------------|-10-10-10-------0-0-0---------|
|
|                       PM---|        PM--|
| E  E E  E E E E  E    S  S  E  E  E S S S S E  E
|--------------------|------------------------------|
|--------------------|------------------------------|
|--------------------|------------------------------|
|----8---10---7----8-|-----------8s10---------7--8--|
|--------------------|----------------0-0-0---------|
|--------------------|-10-10-10-------0-0-0---------|


  E  E E E E E E E   E E E  E E E E E
|------------------|------------------|
|------------------|------------------|
|------------------|------------------|
|-7----------------|------------------|
|---10-8-5---8---7-|---8---10---7---8-|
|------------------|------------------|
|
| E  E E E E E E E   E E E  E E E E E
|------------------|------------------|
|------------------|------------------|
|-7----------------|------------------|
|----8-7-----7---5-|---7----8---5---7-|
|--------8---------|------------------|
|------------------|------------------|


                       PM--|       PM--|
  E  E E  E E E E  E   S S E  E  E S S S S E  E
|--------------------|---------------------------|
|--------------------|---------------------------|
|--------------------|---------------------------|
|--------------------|-------10s12---------------|
|---10---12---8---10-|-------------0-0-0---8-10--|
|--------------------|-8-8-8-------0-0-0---------|
|
|                      PM--|       PM--|
| E  E E  E E E E  E   S S E  E  E S S S S E  E
|--------------------|---------------------------|
|--------------------|---------------------------|
|--------------------|--------8s10---------------|
|----8---10---7----8-|---------------------7--8--|
|--------------------|-------------0-0-0---------|
|--------------------|-8-8-8-------0-0-0---------|


  E  E E E E E E E   E E E  E E E E E
|------------------|------------------|
|------------------|------------------|
|------------------|------------------|
|-7----------------|------------------|
|---10-8-5---8---7-|---8---10---7---8-|
|------------------|------------------|
|
| E  E E E E E E E   E E E  E E E E E
|------------------|------------------|
|------------------|------------------|
|-7----------------|------------------|
|----8-7-----7---5-|---7----8---5---7-|
|--------8---------|------------------|
|------------------|------------------|


                        PM---|        PM--|
  E  E E  E E E E  E    S  S  E  E  E S S S S E  E
|--------------------|------------------------------|
|--------------------|------------------------------|
|--------------------|------------------------------|
|--------------------|------------------------------|
|---10---12---8---10-|----------10s12-0-0-0---8-10--|
|--------------------|-10-10-10-------0-0-0---------|
|
|                       PM---|        PM--|
| E  E E  E E E E  E    S  S  E  E  E S S S S E  E
|--------------------|------------------------------|
|--------------------|------------------------------|
|--------------------|------------------------------|
|----8---10---7----8-|-----------8s10---------7--8--|
|--------------------|----------------0-0-0---------|
|--------------------|-10-10-10-------0-0-0---------|


                                                            2/4
  E  E E E E E E E   E E E  E E E E E   E  E E  E E E E  E   E E E E
|------------------|------------------|--------------------|---------|
|------------------|------------------|--------------------|---------|
|------------------|------------------|--------------------|---------|
|-7----------------|------------------|--------------------|-8-8-8-0-|
|---10-8-5---8---7-|---8---10---7---8-|---10---12---8---10-|-8-8-8-0-|
|------------------|------------------|--------------------|-8-8-8-0-|
|
| E  E E E E E E E   E E E  E E E E E   E  E E  E E E E  E   E E E E
|------------------|------------------|--------------------|---------|
|------------------|------------------|--------------------|---------|
|-7----------------|------------------|--------------------|---------|
|----8-7-----7---5-|---7----8---5---7-|----8---10---7----8-|-8-8-8-0-|
|--------8---------|------------------|--------------------|-8-8-8-0-|
|------------------|------------------|--------------------|-8-8-8-0-|


 Verse Part 3
 4/4
  +E  E E E E E E E   E  E  E E E E E E
|-------------------|-------------------|
|-------------------|-------------------|
|-------------------|-------------------|
|-(0)---------------|-5-/7-\5---------8-|
|-(0)-x-8---7---8---|-----------8---7-8-|
|-(0)-x-------------|-----------------8-|
|
| +E  E E E E E E E   E  E  E E E E E E
|-------------------|-------------------|
|-------------------|-------------------|
|-------------------|-3-/5-\3-----------|
|-(0)---7---5---7---|-----------7---5-8-|
|-(0)-x-------------|-----------------8-|
|-(0)-x-------------|-----------------8-|


  +Q   S S E E E E E   +E  E E E E E E E
|--------------------|-------------------|
|--------------------|-------------------|
|--------------------|-------------------|
|-(8)--5-7-5-------5-|-(5)-----2-3-2---0-|
|-(8)--------8-7-5-5-|-(5)-3-5-------5-0-|
|-(8)--------------5-|-(5)-------------0-|
|
| +Q   S S E E E E E   +E  E E E E E E E
|--------------------|-------------------|
|--------------------|-------------------|
|------3-5-3---------|---------0-2-0-----|
|-(8)--------7-5-3-5-|-(5)-2-3-------3-0-|
|-(8)--------------5-|-(5)-------------0-|
|-(8)--------------5-|-(5)-------------0-|


  +E  E  E E  E E  E E    E E  E E  E E E E
|----------------------|--------------------|
|----------------------|--------------------|
|----------------------|--------------------|
|-(0)---12-0-10-0--8-0-|-10-0--8-0--7-5-3-8-|
|-(0)-x----------------|------------------8-|
|-(0)-x----------------|------------------8-|
|
| +E  E  E E  E E  E E    E E  E E  E E E E
|----------------------|--------------------|
|----------------------|--------------------|
|----------------------|--------------------|
|-(0)---15-0-14-0-12-0-|-14-0-12-0-10-8-7-8-|
|-(0)-x----------------|------------------8-|
|-(0)-x----------------|------------------8-|


  +Q   S S E E E E E   +E  E E E E E E E
|--------------------|--------------------|
|--------------------|--------------------|
|--------------------|--------------------|
|-(8)--5-7-5-------5-|-(5)-----2-3-2---0--|
|-(8)--------8-7-5-5-|-(5)-3-5-------5-0--|
|-(8)--------------5-|-(5)-------------0--|
|
| +Q   S S E E E E E   +E  E E E E E E E
|--------------------|--------------------|
|--------------------|--------------------|
|------3-5-3---------|---------0-2-0------|
|-(8)--------7-5-3-5-|-(5)-2-3-------3-0--|
|-(8)--------------5-|-(5)-------------0--|
|-(8)--------------5-|-(5)-------------0--|


 4/4
  +E  E E E E E E E   E  E  E E E E E E
|-------------------|-------------------|
|-------------------|-------------------|
|-------------------|-------------------|
|-(0)---------------|-5-/7-\5---------8-|
|-(0)-x-8---7---8---|-----------8---7-8-|
|-(0)-x-------------|-----------------8-|
|
| +E  E E E E E E E   E  E  E E E E E E
|-------------------|-------------------|
|-------------------|-------------------|
|-------------------|-3-/5-\3-----------|
|-(0)---7---5---7---|-----------7---5-8-|
|-(0)-x-------------|-----------------8-|
|-(0)-x-------------|-----------------8-|


  +Q   S S E E E E E   +E  E E E E E E E
|--------------------|-------------------|
|--------------------|-------------------|
|--------------------|-------------------|
|-(8)--5-7-5-------5-|-(5)-----2-3-2---0-|
|-(8)--------8-7-5-5-|-(5)-3-5-------5-0-|
|-(8)--------------5-|-(5)-------------0-|
|
| +Q   S S E E E E E   +E  E E E E E E E
|--------------------|-------------------|
|--------------------|-------------------|
|------3-5-3---------|---------0-2-0-----|
|-(8)--------7-5-3-5-|-(5)-2-3-------3-0-|
|-(8)--------------5-|-(5)-------------0-|
|-(8)--------------5-|-(5)-------------0-|


  +E  E  E E  E E  E E    E E  E E  E E E E
|----------------------|--------------------|
|----------------------|--------------------|
|----------------------|--------------------|
|-(0)---12-0-10-0--8-0-|-10-0--8-0--7-5-3-8-|
|-(0)-x----------------|------------------8-|
|-(0)-x----------------|------------------8-|
|
| +E  E  E E  E E  E E    E E  E E  E E E E
|----------------------|--------------------|
|----------------------|--------------------|
|----------------------|--------------------|
|-(0)---15-0-14-0-12-0-|-14-0-12-0-10-8-7-8-|
|-(0)-x----------------|------------------8-|
|-(0)-x----------------|------------------8-|


  +Q   S S E E E E E   +E  E E E E E E  E
|--------------------|---------------------|
|--------------------|---------------------|
|--------------------|---------------------|
|-(8)--5-7-5-------5-|-(5)-----2-3-2---12--|
|-(8)--------8-7-5-5-|-(5)-3-5-------5-----|
|-(8)--------------5-|-(5)-----------------|
|
| +Q   S S E E E E E   +E  E E E E E E  E
|--------------------|---------------------|
|--------------------|---------------------|
|------3-5-3---------|---------0-2-0-------|
|-(8)--------7-5-3-5-|-(5)-2-3-------3--0--|
|-(8)--------------5-|-(5)--------------0--|
|-(8)--------------5-|-(5)--------------0--|


 Chorus
   +Q    Q   Q    Q        Q    Q   E E  Q
|-----------------------|--------------------|
|-------10--------------|--------------------|
|-----------12---10-----|-12---10--10-9------|
|-(12)------------------|---------------10---|
|-----------------------|--------------------|
|-----------------------|--------------------|
|
|  +Q    Q   E E  E +E    +Q    Q   E E  E E
|-----------------------|--------------------|
|-----------------------|--------------------|
|-----------------------|--------------------|
|--(0)---0---0-0--0-(0)-|-(0)---0---0-0--0-8-|
|--(0)---0---0-0--0-(0)-|-(0)---0---0-0--0-8-|
|--(0)---0---0-0--0-(0)-|-(0)---0---0-0--0-8-|


   +E   E  E E E  E E  E    +E   E  E  E  E E  E  E
|------------------------|--------------------------|
|------------------------|------10------------------|
|------12-10-9-9-10-9----|---------12-10-10-9-------|
|-(10)----------------12-|-(12)---------------10-12-|
|------------------------|--------------------------|
|------------------------|--------------------------|
|
|  +E   E  Q   E  E E  E    +E   E  Q     E E  E  E
|------------------------|--------------------------|
|------------------------|--------------------------|
|------------------------|--------------------------|
|--(8)--8--8---8--8-8--5-|--(5)--5--5-----3-3--3--0-|
|--(8)--8--8---8--8-8--5-|--(5)--5--5-----3-3--3--0-|
|--(8)--8--8---8--8-8--5-|--(5)--5--5-----3-3--3--0-|


   +Q    Q   Q    Q        Q    Q   E  E  E  E
|-----------------------|----------------------|
|-------10-------10-----|-13---10-----10-------|
|-----------12----------|----------12----12-10-|
|-(12)------------------|----------------------|
|-----------------------|----------------------|
|-----------------------|----------------------|
|
|  +Q    Q   E E  E +E    +Q    Q   E  E  E  E
|-----------------------|----------------------|
|-----------------------|----------------------|
|-----------------------|----------------------|
|--(0)---0---0-0--0-(0)-|-(0)---0---0--0--0--8-|
|--(0)---0---0-0--0-(0)-|-(0)---0---0--0--0--8-|
|--(0)---0---0-0--0-(0)-|-(0)---0---0--0--0--8-|


   +E   E  E E E  E E  E    +E   E  E  E  E  Q   E
|------------------------|-------------------------|
|------------------------|------10-----------------|
|-(10)-12-10-9-9-10-9----|---------12-10-----------|
|---------------------12-|-(12)----------12-10--12-|
|------------------------|-------------------------|
|------------------------|-------------------------|
|
|  +E   E  Q   E  E E  E    +E   E  Q     E  Q   E
|------------------------|-------------------------|
|------------------------|-------------------------|
|------------------------|-------------------------|
|--(8)--8--8---8--8-8--5-|--(5)--5--5-----5--3---0-|
|--(8)--8--8---8--8-8--5-|--(5)--5--5-----5--3---0-|
|--(8)--8--8---8--8-8--5-|--(5)--5--5-----5--3---0-|


   +Q    Q   Q    Q        Q    Q   E E  Q
|-----------------------|--------------------|
|-------10--------------|--------------------|
|-----------12---10-----|-12---10--10-9------|
|-(12)------------------|---------------10---|
|-----------------------|--------------------|
|-----------------------|--------------------|
|
|  +Q    Q   E E  E +E    +Q    Q   E E  E E
|-----------------------|--------------------|
|-----------------------|--------------------|
|-----------------------|--------------------|
|--(0)---0---0-0--0-(0)-|-(0)---0---0-0--0-8-|
|--(0)---0---0-0--0-(0)-|-(0)---0---0-0--0-8-|
|--(0)---0---0-0--0-(0)-|-(0)---0---0-0--0-8-|


   +E   E  E E E  E E  E    +E   E  E  E  E E  E  E
|------------------------|--------------------------|
|------------------------|------10------------------|
|------12-10-9-9-10-9----|---------12-10-10-9-------|
|-(10)----------------12-|-(12)---------------10-12-|
|------------------------|--------------------------|
|------------------------|--------------------------|
|
|  +E   E  Q   E  E E  E    +E   E  Q     E E  E  E
|------------------------|--------------------------|
|------------------------|--------------------------|
|------------------------|--------------------------|
|--(8)--8--8---8--8-8--5-|--(5)--5--5-----3-3--3--0-|
|--(8)--8--8---8--8-8--5-|--(5)--5--5-----3-3--3--0-|
|--(8)--8--8---8--8-8--5-|--(5)--5--5-----3-3--3--0-|


   +Q    Q   Q    Q        Q    Q   E  E  E  E
|-----------------------|----------------------|
|-------10-------10-----|-13---10-----10-------|
|-----------12----------|----------12----12-10-|
|-(12)------------------|----------------------|
|-----------------------|----------------------|
|-----------------------|----------------------|
|
|  +Q    Q   E E  E +E    +Q    Q   E  E  E  E
|-----------------------|----------------------|
|-----------------------|----------------------|
|-----------------------|----------------------|
|--(0)---0---0-0--0-(0)-|-(0)---0---0--0--0--8-|
|--(0)---0---0-0--0-(0)-|-(0)---0---0--0--0--8-|
|--(0)---0---0-0--0-(0)-|-(0)---0---0--0--0--8-|


   +E   E  E E E  E E  E    +E   E  E  E  E  Q.
|------------------------|------------------------|
|------------------------|------10----------------|
|-(10)-12-10-9-9-10-9----|---------12-10----------|
|---------------------12-|-(12)----------12-10----|
|------------------------|------------------------|
|------------------------|------------------------|
|
|  +E   E  Q   E  E E  E    +E   E  Q     E  Q.
|------------------------|------------------------|
|------------------------|------------------------|
|------------------------|------------------------|
|--(8)--8--8---8--8-8--5-|--(5)--5--5-----5--3----|
|--(8)--8--8---8--8-8--5-|--(5)--5--5-----5--3----|
|--(8)--8--8---8--8-8--5-|--(5)--5--5-----5--3----|


 Verse 2
 6/4                                            4/4
  Gtr III                         Gtr I
  PM--|           PM--|           PM--|
  S S S S Q       S S S S Q       S S S S E  E   E  E E E E E E E
|----------------------------------------------|------------------|
|----------------------------------------------|------------------|
|----------------------------------------------|------------------|
|----------------------------------------------|-7----------------|
|-0-0-0-----------0-0-0-----------0-0-0---8-10-|---10-8-5---8---7-|
|-0-0-0-----------0-0-0-----------0-0-0--------|------------------|
|
| Gtr IV                          Gtr II
|         PM--|           PM--|   PM--|
| Q       S S S S Q       S S S S S S S S E  E   E  E E E E E E E
|----------------------------------------------|------------------|
|----------------------------------------------|------------------|
|----------------------------------------------|-7----------------|
|-----------------------------------------7--8-|----8-7-----7---5-|
|---------0-0-0-----------0-0-0---0-0-0--------|--------8---------|
|---------0-0-0-----------0-0-0---0-0-0--------|------------------|


                                           PM---|        PM--|
  E E E  E E E E E   E  E E  E E E E  E    S  S  E  E  E S S S S E  E
|------------------|--------------------|-----------------------------|
|------------------|--------------------|-----------------------------|
|------------------|--------------------|-----------------------------|
|------------------|--------------------|-----------------------------|
|---8---10---7---8-|---10---12---8---10-|----------10s12-0-0-0---8-10-|
|------------------|--------------------|-10-10-10-------0-0-0--------|
|
|                                          PM---|        PM--|
| E E E  E E E E E   E  E E  E E E E  E    S  S  E  E  E S S S S E  E
|------------------|--------------------|-----------------------------|
|------------------|--------------------|-----------------------------|
|------------------|--------------------|-----------------------------|
|---7----8---5---7-|----8---10---7----8-|-----------8s10---------7--8-|
|------------------|--------------------|----------------0-0-0--------|
|------------------|--------------------|-10-10-10-------0-0-0--------|


  E  E E E E E E E   E E E  E E E E E
|------------------|------------------|
|------------------|------------------|
|------------------|------------------|
|-7----------------|------------------|
|---10-8-5---8---7-|---8---10---7---8-|
|------------------|------------------|
|
| E  E E E E E E E   E E E  E E E E E
|------------------|------------------|
|------------------|------------------|
|-7----------------|------------------|
|----8-7-----7---5-|---7----8---5---7-|
|--------8---------|------------------|
|------------------|------------------|


                       PM--|       PM--|
  E  E E  E E E E  E   S S E  E  E S S S S E  E
|--------------------|---------------------------|
|--------------------|---------------------------|
|--------------------|---------------------------|
|--------------------|-------10s12---------------|
|---10---12---8---10-|-------------0-0-0---8-10--|
|--------------------|-8-8-8-------0-0-0---------|
|
|                      PM--|       PM--|
| E  E E  E E E E  E   S S E  E  E S S S S E  E
|--------------------|---------------------------|
|--------------------|---------------------------|
|--------------------|--------8s10---------------|
|----8---10---7----8-|---------------------7--8--|
|--------------------|-------------0-0-0---------|
|--------------------|-8-8-8-------0-0-0---------|


  E  E E E E E E E   E E E  E E E E E
|------------------|------------------|
|------------------|------------------|
|------------------|------------------|
|-7----------------|------------------|
|---10-8-5---8---7-|---8---10---7---8-|
|------------------|------------------|
|
| E  E E E E E E E   E E E  E E E E E
|------------------|------------------|
|------------------|------------------|
|-7----------------|------------------|
|----8-7-----7---5-|---7----8---5---7-|
|--------8---------|------------------|
|------------------|------------------|


                        PM---|        PM--|
  E  E E  E E E E  E    S  S  E  E  E S S S S E  E
|--------------------|------------------------------|
|--------------------|------------------------------|
|--------------------|------------------------------|
|--------------------|------------------------------|
|---10---12---8---10-|----------10s12-0-0-0---8-10--|
|--------------------|-10-10-10-------0-0-0---------|
|
|                       PM---|        PM--|
| E  E E  E E E E  E    S  S  E  E  E S S S S E  E
|--------------------|------------------------------|
|--------------------|------------------------------|
|--------------------|------------------------------|
|----8---10---7----8-|-----------8s10---------7--8--|
|--------------------|----------------0-0-0---------|
|--------------------|-10-10-10-------0-0-0---------|


  E  E E E E E E E   E E E  E E E E E
|------------------|------------------|
|------------------|------------------|
|------------------|------------------|
|-7----------------|------------------|
|---10-8-5---8---7-|---8---10---7---8-|
|------------------|------------------|
|
| E  E E E E E E E   E E E  E E E E E
|------------------|------------------|
|------------------|------------------|
|-7----------------|------------------|
|----8-7-----7---5-|---7----8---5---7-|
|--------8---------|------------------|
|------------------|------------------|


                       PM|       PM|
  E  E E  E E E E  E   E E  E  E E E E  E
|--------------------|--------------------|
|--------------------|--------------------|
|--------------------|--------------------|
|--------------------|-----10s12----------|
|---10---12---8---10-|-8-8-------0-0-8-10-|
|--------------------|-8-8-------0-0------|
|
|                      PM|       PM|
| E  E E  E E E E  E   E E  E  E E E E  E
|--------------------|--------------------|
|--------------------|--------------------|
|--------------------|------8s10----------|
|----8---10---7----8-|---------------7--8-|
|--------------------|-8-8-------0-0------|
|--------------------|-8-8-------0-0------|


  E  E E E E E E E   E E E  E E E E E
|------------------|------------------|
|------------------|------------------|
|------------------|------------------|
|-7----------------|------------------|
|---10-8-5---8---7-|---8---10---7---8-|
|------------------|------------------|
|
| E  E E E E E E E   E E E  E E E E E
|------------------|------------------|
|------------------|------------------|
|-7----------------|------------------|
|----8-7-----7---5-|---7----8---5---7-|
|--------8---------|------------------|
|------------------|------------------|


                        PM|        PM|
  E  E E  E E E E  E    E  E  E  E E E E  E
|--------------------|----------------------|
|--------------------|----------------------|
|--------------------|----------------------|
|--------------------|----------------------|
|---10---12---8---10-|-10-10-10s12-0-0-8-10-|
|--------------------|-10-10-------0-0------|
|
|                       PM|        PM|
| E  E E  E E E E  E    E  E  E  E E E E  E
|--------------------|----------------------|
|--------------------|----------------------|
|--------------------|----------------------|
|----8---10---7----8-|--------8s10-----7--8-|
|--------------------|-10-10-------0-0------|
|--------------------|-10-10-------0-0------|


  E  E E E E E E E   E E E  E E E E E
|------------------|------------------|
|------------------|------------------|
|------------------|------------------|
|-7----------------|------------------|
|---10-8-5---8---7-|---8---10---7---8-|
|------------------|------------------|
|
| E  E E E E E E E   E E E  E E E E E
|------------------|------------------|
|------------------|------------------|
|-7----------------|------------------|
|----8-7-----7---5-|---7----8---5---7-|
|--------8---------|------------------|
|------------------|------------------|


                       PM|       PM|
  E  E E  E E E E  E   E E  E  E E E E  E
|--------------------|--------------------|
|--------------------|--------------------|
|--------------------|--------------------|
|--------------------|-----10s12----------|
|---10---12---8---10-|-8-8-------0-0-8-10-|
|--------------------|-8-8-------0-0------|
|
|                      PM|       PM|
| E  E E  E E E E  E   E E  E  E E E E  E
|--------------------|--------------------|
|--------------------|--------------------|
|--------------------|------8s10----------|
|----8---10---7----8-|---------------7--8-|
|--------------------|-8-8-------0-0------|
|--------------------|-8-8-------0-0------|


  E  E E E E E E E   E E E  E E E E E
|------------------|------------------|
|------------------|------------------|
|------------------|------------------|
|-7----------------|------------------|
|---10-8-5---8---7-|---8---10---7---8-|
|------------------|------------------|
|
| E  E E E E E E E   E E E  E E E E E
|------------------|------------------|
|------------------|------------------|
|-7----------------|------------------|
|----8-7-----7---5-|---7----8---5---7-|
|--------8---------|------------------|
|------------------|------------------|


                        PM|        PM|
  E  E E  E E E E  E    E  E  E  E E E E  E
|--------------------|----------------------|
|--------------------|----------------------|
|--------------------|----------------------|
|--------------------|----------------------|
|---10---12---8---10-|-10-10-10s12-0-0-8-10-|
|--------------------|-10-10-------0-0------|
|
|                       PM|        PM|
| E  E E  E E E E  E    E  E  E  E E E E  E
|--------------------|----------------------|
|--------------------|----------------------|
|--------------------|----------------------|
|----8---10---7----8-|--------8s10-----7--8-|
|--------------------|-10-10-------0-0------|
|--------------------|-10-10-------0-0------|


  E  E E E E E E E   E E E  E E E E E   E  E E  E E E E  E    E E E E E  Q.
|------------------|------------------|--------------------|------------------|
|------------------|------------------|--------------------|------------------|
|------------------|------------------|--------------------|------------------|
|-7----------------|------------------|--------------------|------------------|
|---10-8-5---8---7-|---8---10---7---8-|---10---12---8---10-|----8-7-5-8-------|
|------------------|------------------|--------------------|-10---------10----|
|
| E  E E E E E E E   E E E  E E E E E   E  E E  E E E E  E    E E E E E  Q.
|------------------|------------------|--------------------|------------------|
|------------------|------------------|--------------------|------------------|
|-7----------------|------------------|--------------------|------------------|
|----8-7-----7---5-|---7----8---5---7-|----8---10---7----8-|----7-5-3-7-------|
|--------8---------|------------------|--------------------|--7----------7----|
|------------------|------------------|--------------------|------------------|


 Breakdown 1
  PM---------------------------------------------------------
  S S S S S S S E S S S S S E   S S S S S S S E S S S S S E
|-----------------------------|-----------------------------|
|-----------------------------|-----------------------------|
|-----------------------------|-----------------------------|
|-----------------------------|-----------------------------|
|-0-0-0---0-0-0---0-0---0-0---|-0-0-0---0-0-0---0-0---0-0---|
|-0-0-0---0-0-0---0-0---0-0---|-0-0-0---0-0-0---0-0---0-0---|
|
| PM---------------------------------------------------------
| S S S S S S S E S S S S S E   S S S S S S S E S S S S S E
|-----------------------------|-----------------------------|
|-----------------------------|-----------------------------|
|-----------------------------|-----------------------------|
|-----------------------------|-----------------------------|
|-0-0-0---0-0-0---0-0---0-0---|-0-0-0---0-0-0---0-0---0-0---|
|-0-0-0---0-0-0---0-0---0-0---|-0-0-0---0-0-0---0-0---0-0---|


 -------------------|   PM----------|   PM--|     PM|
  S S S S S S S E S S S S S E   S S S S S S S S E S S E E
|-----------------------------|----------------------------|
|-----------------------------|----------------------------|
|-----------------------------|----------------------------|
|-----------------------------|----------------------------|
|-0-0-0---0-0-0---0-0---0-0---|-8-8-8---8-8-8---8-----7-8--|
|-0-0-0---0-0-0---0-0---0-0---|-8-8-8---8-8-8-----8-8------|
|
|-------------------|   PM----------|   PM--|     PM|
| S S S S S S S E S S S S S E   S S S S S S S S E S S E E
|-----------------------------|----------------------------|
|-----------------------------|----------------------------|
|-----------------------------|----------------------------|
|-----------------------------|-----------------7-----5-7--|
|-0-0-0---0-0-0---0-0---0-0---|-8-8-8---8-8-8--------------|
|-0-0-0---0-0-0---0-0---0-0---|-8-8-8---8-8-8-----8-8------|


  PM---------------------------------------------------------
  S S S S S S S E S S S S S E   S S S S S S S E S S S S S E
|-----------------------------|-----------------------------|
|-----------------------------|-----------------------------|
|-----------------------------|-----------------------------|
|-----------------------------|-----------------------------|
|-0-0-0---0-0-0---0-0---0-0---|-0-0-0---0-0-0---0-0---0-0---|
|-0-0-0---0-0-0---0-0---0-0---|-0-0-0---0-0-0---0-0---0-0---|
|
| PM---------------------------------------------------------
| S S S S S S S E S S S S S E   S S S S S S S E S S S S S E
|-----------------------------|-----------------------------|
|-----------------------------|-----------------------------|
|-----------------------------|-----------------------------|
|-----------------------------|-----------------------------|
|-0-0-0---0-0-0---0-0---0-0---|-0-0-0---0-0-0---0-0---0-0---|
|-0-0-0---0-0-0---0-0---0-0---|-0-0-0---0-0-0---0-0---0-0---|


                               6/4
 -------------------|   PM----------|   PM--|     PM|       PM|
  S S S S S S S E S S S S S E   S S S S S S S S E S S E E E S S E E
|-----------------------------|-------------------------------------|
|-----------------------------|-------------------------------------|
|-----------------------------|-------------------------------------|
|-----------------------------|-------------------------------------|
|-0-0-0---0-0-0---0-0---0-0---|-8-8-8---8-8-8---8-----7-8-8---------|
|-0-0-0---0-0-0---0-0---0-0---|-8-8-8---8-8-8-----8-8-------8-8-7-8-|
|
|-------------------|   PM|     PM--|   PM--|     PM|       PM|
| S S S S S S S E S S S S S E   S S S S S S S S E S S E E E S S E E
|-----------------------------|-------------------------------------|
|-----------------------------|-------------------------------------|
|-----------------------------|-------------------------------------|
|-----------------------------|-----------------7-----5-7-7---------|
|-0-0-0---0-0-0---0-0---0-0---|-8-8-8---8-8-8-------------------3-5-|
|-0-0-0---0-0-0---0-0---0-0---|-8-8-8---8-8-8-----8-8-------8-8-----|


 4/4
  PM---------------------------------------------------------
  S S S S S S S E S S S S S E   S S S S S S S E S S S S S E
|-----------------------------|-----------------------------|
|-----------------------------|-----------------------------|
|-----------------------------|-----------------------------|
|-----------------------------|-----------------------------|
|-0-0-0---0-0-0---0-0---0-0---|-0-0-0---0-0-0---0-0---0-0---|
|-0-0-0---0-0-0---0-0---0-0---|-0-0-0---0-0-0---0-0---0-0---|
|
| PM---------------------------------------------------------
| S S S S S S S E S S S S S E   S S S S S S S E S S S S S E
|-----------------------------|-----------------------------|
|-----------------------------|-----------------------------|
|-----------------------------|-----------------------------|
|-----------------------------|-----------------------------|
|-0-0-0---0-0-0---0-0---0-0---|-0-0-0---0-0-0---0-0---0-0---|
|-0-0-0---0-0-0---0-0---0-0---|-0-0-0---0-0-0---0-0---0-0---|


 -------------------|   PM----------|   PM--|     PM|
  S S S S S S S E S S S S S E   S S S S S S S S E S S E E
|-----------------------------|---------------------------|
|-----------------------------|---------------------------|
|-----------------------------|---------------------------|
|-----------------------------|---------------------------|
|-0-0-0---0-0-0---0-0---0-0---|-8-8-8---8-8-8---8-----7-8-|
|-0-0-0---0-0-0---0-0---0-0---|-8-8-8---8-8-8-----8-8-----|
|
|-------------------|   PM----------|   PM--|     PM|
| S S S S S S S E S S S S S E   S S S S S S S S E S S E E
|-----------------------------|---------------------------|
|-----------------------------|---------------------------|
|-----------------------------|---------------------------|
|-----------------------------|-----------------7-----5-7-|
|-0-0-0---0-0-0---0-0---0-0---|-8-8-8---8-8-8-------------|
|-0-0-0---0-0-0---0-0---0-0---|-8-8-8---8-8-8-----8-8-----|


  PM---------------------------------------------------------
  S S S S S S S E S S S S S E   S S S S S S S E S S S S S E
|-----------------------------|-----------------------------|
|-----------------------------|-----------------------------|
|-----------------------------|-----------------------------|
|-----------------------------|-----------------------------|
|-0-0-0---0-0-0---0-0---0-0---|-0-0-0---0-0-0---0-0---0-0---|
|-0-0-0---0-0-0---0-0---0-0---|-0-0-0---0-0-0---0-0---0-0---|
|
| PM---------------------------------------------------------
| S S S S S S S E S S S S S E   S S S S S S S E S S S S S E
|-----------------------------|-----------------------------|
|-----------------------------|-----------------------------|
|-----------------------------|-----------------------------|
|-----------------------------|-----------------------------|
|-0-0-0---0-0-0---0-0---0-0---|-0-0-0---0-0-0---0-0---0-0---|
|-0-0-0---0-0-0---0-0---0-0---|-0-0-0---0-0-0---0-0---0-0---|


                               6/4
 -------------------|   PM----------|   PM--|     PM|       PM|
  S S S S S S S E S S S S S E   S S S S S S S S E S S E E E S S E E
|-----------------------------|-------------------------------------|
|-----------------------------|-------------------------------------|
|-----------------------------|-------------------------------------|
|-----------------------------|-----------------------------------0-|
|-0-0-0---0-0-0---0-0---0-0---|-8-8-8---8-8-8---8-----7-8-8-------0-|
|-0-0-0---0-0-0---0-0---0-0---|-8-8-8---8-8-8-----8-8-------8-8-7-0-|
|
|-------------------|   PM|     PM--|   PM--|     PM|       PM|
| S S S S S S S E S S S S S E   S S S S S S S S E S S E E E S S E E
|-----------------------------|-------------------------------------|
|-----------------------------|-------------------------------------|
|-----------------------------|-------------------------------------|
|-----------------------------|-----------------7-----5-7-7-------0-|
|-0-0-0---0-0-0---0-0---0-0---|-8-8-8---8-8-8-------------------3-0-|
|-0-0-0---0-0-0---0-0---0-0---|-8-8-8---8-8-8-----8-8-------8-8---0-|


 Chorus 2
 4/4
  +E  E   E E E E E E   E    E  E E E E E E
|---------------------|---------------------|
|---------------------|---------------------|
|---------------------|---------------------|
|-(0)-----------------|-5---/7-\5-----------|
|-(0)-x---8---7---8---|-------------8---7---|
|-(0)-x---------------|---------------------|
|
| +E  H..               H..               E
|---------------------|---------------------|
|---------------------|---------------------|
|---------------------|---------------------|
|-(0)-----------------|-------------------8-|
|-(0)-----------------|-------------------8-|
|-(0)-----------------|-------------------8-|


   E   E  E E E  E E  E    +E   E  E  E  E E  E  E
|-----------------------|---------------------------|
|-----------------------|------10-------------------|
|-----12-10-9-9-10-9----|---------12-10-10-9--------|
|-10-----------------12-|-(12)---------------10-12--|
|-----------------------|---------------------------|
|-----------------------|---------------------------|
|
| +E   E  Q   E  E E  E    +E   E  Q     E E  E  E
|-----------------------|---------------------------|
|-----------------------|---------------------------|
|-----------------------|---------------------------|
|-(8)--8--8---8--8-8--5-|--(5)--5--5-----3-3--3--0--|
|-(8)--8--8---8--8-8--5-|--(5)--5--5-----3-3--3--0--|
|-(8)--8--8---8--8-8--5-|--(5)--5--5-----3-3--3--0--|


   +Q    Q   Q    Q        Q    Q   E  E  E  E
|-----------------------|----------------------|
|-------10-------10-----|-13---10-----10-------|
|-----------12----------|----------12----12-10-|
|-(12)------------------|----------------------|
|-----------------------|----------------------|
|-----------------------|----------------------|
|
|  +Q    Q   E E  E +E    +Q    Q   E  E  E  E
|-----------------------|----------------------|
|-----------------------|----------------------|
|-----------------------|----------------------|
|--(0)---0---0-0--0-(0)-|-(0)---0---0--0--0--8-|
|--(0)---0---0-0--0-(0)-|-(0)---0---0--0--0--8-|
|--(0)---0---0-0--0-(0)-|-(0)---0---0--0--0--8-|


   +E   E  E E E  E E  E    +E   E  E  E  E  Q     E
|------------------------|---------------------------|
|------------------------|------10-------------------|
|-(10)-12-10-9-9-10-9----|---------12-10-------------|
|---------------------12-|-(12)----------12-10----12-|
|------------------------|---------------------------|
|------------------------|---------------------------|
|
|  +E   E  Q   E  E E  E    +E   E  Q     E  E  E  E
|------------------------|---------------------------|
|------------------------|---------------------------|
|------------------------|---------------------------|
|--(8)--8--8---8--8-8--5-|--(5)--5--5----10-10-10--0-|
|--(8)--8--8---8--8-8--5-|--(5)--5--5----10-10-10--0-|
|--(8)--8--8---8--8-8--5-|--(5)--5--5----10-10-10--0-|


   +Q    Q    Q      Q     Q    Q   E E  Q
|-----------------------|--------------------|
|-------10--------------|--------------------|
|------------12-----10--|-12---10--10-9------|
|-(12)------------------|---------------10---|
|-----------------------|--------------------|
|-----------------------|--------------------|
|
|  +Q    E E  E +E   Q    +Q    Q   E E  E E
|-----------------------|--------------------|
|-----------------------|--------------------|
|-----------------------|--------------------|
|--(0)---0-0--0-(0)--0--|-(0)---0---0-0--0-8-|
|--(0)---0-0--0-(0)--0--|-(0)---0---0-0--0-8-|
|--(0)---0-0--0-(0)--0--|-(0)---0---0-0--0-8-|


   +E   E  E E E  E E  E    +E   E  E  E  E E  E  E
|------------------------|--------------------------|
|------------------------|------10------------------|
|------12-10-9-9-10-9----|---------12-10-10-9-------|
|-(10)----------------12-|-(12)---------------10-12-|
|------------------------|--------------------------|
|------------------------|--------------------------|
|
|  +E   E  Q   E  E E  E    +E   E  Q     E E  E  E
|------------------------|--------------------------|
|------------------------|--------------------------|
|------------------------|--------------------------|
|--(8)--8--8---8--8-8--5-|--(5)--5--5-----3-3--3--0-|
|--(8)--8--8---8--8-8--5-|--(5)--5--5-----3-3--3--0-|
|--(8)--8--8---8--8-8--5-|--(5)--5--5-----3-3--3--0-|


   +Q    Q   Q    Q        Q    Q   E  E  E  E
|-----------------------|----------------------|
|-------10-------10-----|-13---10-----10-------|
|-----------12----------|----------12----12-10-|
|-(12)------------------|----------------------|
|-----------------------|----------------------|
|-----------------------|----------------------|
|
|  +Q    Q   E E  E +E    +Q    Q   E  E  E  E
|-----------------------|----------------------|
|-----------------------|----------------------|
|-----------------------|----------------------|
|--(0)---0---0-0--0-(0)-|-(0)---0---0--0--0--8-|
|--(0)---0---0-0--0-(0)-|-(0)---0---0--0--0--8-|
|--(0)---0---0-0--0-(0)-|-(0)---0---0--0--0--8-|


   +E   E  E E E  E E  E    +E   E  E  E  E  Q    E
|------------------------|--------------------------|
|------------------------|------10------------------|
|-(10)-12-10-9-9-10-9----|---------12-10------------|
|---------------------12-|-(12)----------12-10---12-|
|------------------------|--------------------------|
|------------------------|--------------------------|
|
|  +E   E  Q   E  E E  E    +E   E  Q     E  E E  E
|------------------------|--------------------------|
|------------------------|--------------------------|
|------------------------|--------------------------|
|--(8)--8--8---8--8-8--5-|--(5)--5--5-----x--x-x--0-|
|--(8)--8--8---8--8-8--5-|--(5)--5--5-----x--x-x--0-|
|--(8)--8--8---8--8-8--5-|--(5)--5--5-----x--x-x--0-|


   +Q    Q    Q      Q     Q    Q   E E  Q
|-----------------------|--------------------|
|-------10--------------|--------------------|
|------------12-----10--|-12---10--10-9------|
|-(12)------------------|---------------10---|
|-----------------------|--------------------|
|-----------------------|--------------------|
|
|  +Q    E E  E +E   Q    +Q    Q   E E  E E
|-----------------------|--------------------|
|-----------------------|--------------------|
|-----------------------|--------------------|
|--(0)---0-0--0-(0)--0--|-(0)---0---0-0--0-8-|
|--(0)---0-0--0-(0)--0--|-(0)---0---0-0--0-8-|
|--(0)---0-0--0-(0)--0--|-(0)---0---0-0--0-8-|


   +E   E  E E E  E E  E    +E   E  E  E  E E  E  E
|------------------------|--------------------------|
|------------------------|------10------------------|
|------12-10-9-9-10-9----|---------12-10-10-9-------|
|-(10)----------------12-|-(12)---------------10-12-|
|------------------------|--------------------------|
|------------------------|--------------------------|
|
|  +E   E  Q   E  E E  E    +E   E  Q     E E  E  E
|------------------------|--------------------------|
|------------------------|--------------------------|
|------------------------|--------------------------|
|--(8)--8--8---8--8-8--5-|--(5)--5--5-----3-3--3--0-|
|--(8)--8--8---8--8-8--5-|--(5)--5--5-----3-3--3--0-|
|--(8)--8--8---8--8-8--5-|--(5)--5--5-----3-3--3--0-|


   +Q    Q   Q    Q        Q    Q   E  E  E  E
|-----------------------|----------------------|
|-------10-------10-----|-13---10-----10-------|
|-----------12----------|----------12----12-10-|
|-(12)------------------|----------------------|
|-----------------------|----------------------|
|-----------------------|----------------------|
|
|  +Q    Q   E E  E +E    +Q    Q   E  E  E  E
|-----------------------|----------------------|
|-----------------------|----------------------|
|-----------------------|----------------------|
|--(0)---0---0-0--0-(0)-|-(0)---0---0--0--0--8-|
|--(0)---0---0-0--0-(0)-|-(0)---0---0--0--0--8-|
|--(0)---0---0-0--0-(0)-|-(0)---0---0--0--0--8-|


   +E   E  E E E  E E  E    +E   E  E  E  E  Q   E
|------------------------|-------------------------|
|------------------------|------10-----------------|
|-(10)-12-10-9-9-10-9----|---------12-10-----------|
|---------------------12-|-(12)----------12-10--12-|
|------------------------|-------------------------|
|------------------------|-------------------------|
|
|  +E   E  Q   E  E E  E    +E   E  Q     E  Q   E
|------------------------|-------------------------|
|------------------------|-------------------------|
|------------------------|-------------------------|
|--(8)--8--8---8--8-8--5-|--(5)--5--5-----5--3---0-|
|--(8)--8--8---8--8-8--5-|--(5)--5--5-----5--3---0-|
|--(8)--8--8---8--8-8--5-|--(5)--5--5-----5--3---0-|


   +Q    Q    Q      Q     Q    Q   E E  Q
|-----------------------|--------------------|
|-------10--------------|--------------------|
|------------12-----10--|-12---10--10-9------|
|-(12)------------------|---------------10---|
|-----------------------|--------------------|
|-----------------------|--------------------|
|
|  +Q    E E  E +E   Q    +Q    Q   E E  E E
|-----------------------|--------------------|
|-----------------------|--------------------|
|-----------------------|--------------------|
|--(0)---0-0--0-(0)--0--|-(0)---0---0-0--0-8-|
|--(0)---0-0--0-(0)--0--|-(0)---0---0-0--0-8-|
|--(0)---0-0--0-(0)--0--|-(0)---0---0-0--0-8-|


   +E   E  E E E  E E  E    +E   E  E  E  E E  E  E
|------------------------|--------------------------|
|------------------------|------10------------------|
|------12-10-9-9-10-9----|---------12-10-10-9-------|
|-(10)----------------12-|-(12)---------------10-12-|
|------------------------|--------------------------|
|------------------------|--------------------------|
|
|  +E   E  Q   E  E E  E    +E   E  Q     E E  E  E
|------------------------|--------------------------|
|------------------------|--------------------------|
|------------------------|--------------------------|
|--(8)--8--8---8--8-8--5-|--(5)--5--5-----3-3--3--0-|
|--(8)--8--8---8--8-8--5-|--(5)--5--5-----3-3--3--0-|
|--(8)--8--8---8--8-8--5-|--(5)--5--5-----3-3--3--0-|


   +Q    Q   Q    Q        Q    Q   E  E  E  E
|-----------------------|----------------------|
|-------10-------10-----|-13---10-----10-------|
|-----------12----------|----------12----12-10-|
|-(12)------------------|----------------------|
|-----------------------|----------------------|
|-----------------------|----------------------|
|
|  +Q    Q   E E  E +E    +Q    Q   E  E  E  E
|-----------------------|----------------------|
|-----------------------|----------------------|
|-----------------------|----------------------|
|--(0)---0---0-0--0-(0)-|-(0)---0---0--0--0--8-|
|--(0)---0---0-0--0-(0)-|-(0)---0---0--0--0--8-|
|--(0)---0---0-0--0-(0)-|-(0)---0---0--0--0--8-|


   +E   E  E E E  E E  E    +E   E  E  E  E  Q.
|------------------------|------------------------|
|------------------------|------10----------------|
|-(10)-12-10-9-9-10-9----|---------12-10----------|
|---------------------12-|-(12)----------12-10----|
|------------------------|------------------------|
|------------------------|------------------------|
|
|  +E   E  Q   E  E E  E    +E   E  Q     E  Q.
|------------------------|------------------------|
|------------------------|------------------------|
|------------------------|------------------------|
|--(8)--8--8---8--8-8--5-|--(5)--5--5-----5--3----|
|--(8)--8--8---8--8-8--5-|--(5)--5--5-----5--3----|
|--(8)--8--8---8--8-8--5-|--(5)--5--5-----5--3----|


                              PM---------------------------------------------------------
   +W            +W           S S S S S S S E S S S S S E   S S S S S S S E S S S S S E
|-------------|-------------|-----------------------------|-----------------------------|
|-------------|-------------|-----------------------------|-----------------------------|
|-------------|-------------|-----------------------------|-----------------------------|
|-(10)--------|-(10)--------|-----------------------------|-----------------------------|
|-------------|-------------|-0-0-0---0-0-0---0-0---0-0---|-0-0-0---0-0-0---0-0---0-0---|
|-------------|-------------|-0-0-0---0-0-0---0-0---0-0---|-0-0-0---0-0-0---0-0---0-0---|
|
|                             PM---------------------------------------------------------
|  +W            +W           S S S S S S S E S S S S S E   S S S S S S S E S S S S S E
|-------------|-------------|-----------------------------|-----------------------------|
|-------------|-------------|-----------------------------|-----------------------------|
|-------------|-------------|-----------------------------|-----------------------------|
|--(3)--------|--(3)--------|-----------------------------|-----------------------------|
|--(3)--------|--(3)--------|-0-0-0---0-0-0---0-0---0-0---|-0-0-0---0-0-0---0-0---0-0---|
|--(3)--------|--(3)--------|-0-0-0---0-0-0---0-0---0-0---|-0-0-0---0-0-0---0-0---0-0---|


 -------------------|   PM------------------|     PM|
  S S S S S S S E S S S S S E   S S S S S S S S E S S E E
|-----------------------------|------------------------------|
|-----------------------------|------------------------------|
|-----------------------------|------------------------------|
|-----------------------------|------------------------------|
|-0-0-0---0-0-0---0-0---0-0---|-8-8-8---8-8-8---8-----7-8----|
|-0-0-0---0-0-0---0-0---0-0---|-8-8-8---8-8-8-----8-8--------|
|
|-------------------|   PM------------------|     PM|
| S S S S S S S E S S S S S E   S S S S S S S S E S S E E
|-----------------------------|------------------------------|
|-----------------------------|------------------------------|
|-----------------------------|------------------------------|
|-----------------------------|-----------------7-----5-7----|
|-0-0-0---0-0-0---0-0---0-0---|-8-8-8---8-8-8----------------|
|-0-0-0---0-0-0---0-0---0-0---|-8-8-8---8-8-8-----8-8--------|


  PM---------------------------------------------------------
  S S S S S S S E S S S S S E   S S S S S S S E S S S S S E
|-----------------------------|-----------------------------|
|-----------------------------|-----------------------------|
|-----------------------------|-----------------------------|
|-----------------------------|-----------------------------|
|-0-0-0---0-0-0---0-0---0-0---|-0-0-0---0-0-0---0-0---0-0---|
|-0-0-0---0-0-0---0-0---0-0---|-0-0-0---0-0-0---0-0---0-0---|
|
| PM---------------------------------------------------------
| S S S S S S S E S S S S S E   S S S S S S S E S S S S S E
|-----------------------------|-----------------------------|
|-----------------------------|-----------------------------|
|-----------------------------|-----------------------------|
|-----------------------------|-----------------------------|
|-0-0-0---0-0-0---0-0---0-0---|-0-0-0---0-0-0---0-0---0-0---|
|-0-0-0---0-0-0---0-0---0-0---|-0-0-0---0-0-0---0-0---0-0---|


                               6/4
 -------------------|   PM------------------|     PM|       PM|
  S S S S S S S E S S S S S E   S S S S S S S S E S S E E E S S E E
|-----------------------------|-------------------------------------|
|-----------------------------|-------------------------------------|
|-----------------------------|-------------------------------------|
|-----------------------------|-------------------------------------|
|-0-0-0---0-0-0---0-0---0-0---|-8-8-8---8-8-8---8-----7-8-8---------|
|-0-0-0---0-0-0---0-0---0-0---|-8-8-8---8-8-8-----8-8-------8-8-7-8-|
|
|-------------------|   PM|     PM----------|     PM|       PM|
| S S S S S S S E S S S S S E   S S S S S S S S E S S E E E S S E E
|-----------------------------|-------------------------------------|
|-----------------------------|-------------------------------------|
|-----------------------------|-------------------------------------|
|-----------------------------|-----------------7-----5-7-7---------|
|-0-0-0---0-0-0---0-0---0-0---|-8-8-8---8-8-8-------------------3-5-|
|-0-0-0---0-0-0---0-0---0-0---|-8-8-8---8-8-8-----8-8-------8-8-----|


 4/4
  Gtr III
                                         PM--------|
  H    S S S S S S E   H               S S S S S S E
|--------------------|-------------------------------|
|--------------------|-------------------------------|
|--------------------|-------------------------------|
|--------------------|-------------------------------|
|--------0-0---0-0---|-------------------0-0---0-0---|
|--------0-0---0-0---|-------------------0-0---0-0---|
|
| Gtr IV
|                      PM-----------------------------
| H    S S S S S S E   S S S S S S S E   S S S S S E
|--------------------|-------------------------------|
|--------------------|-------------------------------|
|--------------------|-------------------------------|
|--------------------|-------------------------------|
|--------0-0---0-0---|-0-0-0---0-0-0-----0-0---0-0---|
|--------0-0---0-0---|-0-0-0---0-0-0-----0-0---0-0---|


                    PM|   PM--|                     PM|
  H               S S S S S S E   H               E S S E E
|-------------------------------|----------------------------|
|-------------------------------|----------------------------|
|-------------------------------|----------------------------|
|-------------------------------|----------------------------|
|-------------------0-0---0-0---|-----------------8-----7-8--|
|-------------------0-0---0-0---|-------------------8-8------|
|
|---------------------|   PM------------------|     PM|
| S S S S S S S E   S S S S S E   S S S S S S S S E S S E E
|-------------------------------|----------------------------|
|-------------------------------|----------------------------|
|-------------------------------|----------------------------|
|-------------------------------|-----------------7-----5-7--|
|-0-0-0---0-0-0-----0-0---0-0---|-8-8-8---8-8-8--------------|
|-0-0-0---0-0-0-----0-0---0-0---|-8-8-8---8-8-8-----8-8------|


  PM-------------------------------------------------------------
  S S S S S S S E   S S S S S E   S S S S S S S E   S S S S S E
|-------------------------------|-------------------------------|
|-------------------------------|-------------------------------|
|-------------------------------|-------------------------------|
|-------------------------------|-------------------------------|
|-0-0-0---0-0-0-----0-0---0-0---|-0-0-0---0-0-0-----0-0---0-0---|
|-0-0-0---0-0-0-----0-0---0-0---|-0-0-0---0-0-0-----0-0---0-0---|
|
|                                                   PM--------|
| H               S S S S S S E   H               S S S S S S E
|-------------------------------|-------------------------------|
|-------------------------------|-------------------------------|
|-------------------------------|-------------------------------|
|-------------------------------|-------------------------------|
|-------------------0-0---0-0---|-------------------0-0---0-0---|
|-------------------0-0---0-0---|-------------------0-0---0-0---|


                                 6/4
 ---------------------|   PM------------------|     PM|       PM|
  S S S S S S S E   S S S S S E   S S S S S S S S E S S E E E S S E E
|-------------------------------|----------------------------------------|
|-------------------------------|----------------------------------------|
|-------------------------------|----------------------------------------|
|-------------------------------|----------------------------------------|
|-0-0-0---0-0-0-----0-0---0-0---|-8-8-8---8-8-8---8-----7-8-8------------|
|-0-0-0---0-0-0-----0-0---0-0---|-8-8-8---8-8-8-----8-8-------8-8-7-8----|
|
|                   PM|   PM--|                     PM|       PM|
| H               S S S S S S E   H               E S S E E E S S E E
|-------------------------------|----------------------------------------|
|-------------------------------|----------------------------------------|
|-------------------------------|----------------------------------------|
|-------------------------------|-----------------7-----5-7-7------------|
|-------------------0-0---0-0---|---------------------------------3-5----|
|-------------------0-0---0-0---|-------------------8-8-------8-8--------|


 4/4
  Gtr I
  PM---------------------------------------------------------
  S S S S S S S E S S S S S E   S S 
3 comments total.
+1 reply
deaththrashcore wrote on April 8 2008, 06:37 pm

This is really good, the only thing is you've forgetten the pedal notes in the intro and verses.

0 reply
Bboy FireDragon wrote on July 25 2008, 04:57 pm

awesome tab, but wats wif da u may only use dis for some thing something something?

0 reply
Bleeding_Metal1 wrote on August 31 2010, 08:24 pm

The intro is wrong, one the first guitar part it doenst go that low on the fretboard its on the 5th string on the frets 5, 7, 8, and 10.

by the way thats just how i play it when i learned it by ear.

I want to post or [tab]
guest
You may want to rate the tab now too:
select rating
Please do not post tabs as comments. Select "correction" instead!