Oops, an error
Loading. Please wait.

Pallbearer Tab

ver1
ver1

Solo

Whole song

More versions @911Tabs.com
793 views 6 this week
no commentswrite comment
1 2 3 4 5
accurate
x 1
Autoscroll
+/-
esc
set tempo
stop
Tuning
C G C F A D
NEW! There's an official Ultimate Guitar app which is ideal
for learning songs when you're away from computer. Get the app
WARNING: You are trying to view
                                    content from Ultimate-Guitar.com
                                    in an unauthorized application,
                                    which is prohibited.

                                    Please use an official Ultimate
                                    Guitar Tabs application for iPhone,
                                    iPad or Android to access legitimate
                                    chords, guitar, bass, and drum tabs
                                    from Ultimate-Guitar.com database.

                                    Type "ultimate guitar tabs" in Apple
                                    App Store's or Android Market's
                                    search to find the application.
ok, this is the solo for Pallbearer, i think its pretty right, its got another guitar in 
back round some times, but this is the lead guitar solo. So you know the deal, let me 
if theres a mistake and correct me on it, and that would be great :) enjoy...

song:Pallbearer (solo)
band:Destroy the Runner
album:Saints
tuning:drop c (cgcfad)


im starting with the little riff that leads into the solo...
(3:11)
d|--------------------------------------------------------------|
a|-------------------13---15b16r15------------------------------|
f|---14b15r14---12-------------------12---15-14-12----------12--|
c|-------------------------------------------------12-14-15-----|x2
g|--------------------------------------------------------------|
c|--------------------------------------------------------------|

(3:21)
d|-----------------------------------------|
a|-----------------------------------------|
f|--15-14-12-14--14-12-10-12--12p10-9h10---|
c|-----------------------------------------|
g|-----------------------------------------|
c|-----------------------------------------|

d|------------------------------------------------------------|
a|------------------------------------------------------------|
f|-----9-10-12---12p10----------------------------------------|
c|--12-----------------12~(do a slide downish thing,----------|
g|--------------------------and go right into the next part)--|
c|------------------------------------------------------------|

d|-----------------------------------12-13-15--|
a|-----------------------------13-15-----------|
f|--------------------12-14-15-----------------|
c|-----------12-14-15--------------------------|
g|-/12-13-15-----------------------------------|
c|---------------------------------------------|

d|--17b18r17-15-13-15------------|
a|--------------------13-15------|
f|--------------------------14~--|
c|-------------------------------|
g|-------------------------------|
c|-------------------------------|

d|-------------------------------------|
a|-----------13~-----------------------|
f|------------------------15~-14-12~---|
c|--15-14-12-----12-14-15--------------|(<all the notes on this string
g|-------------------------------------|  are palm-muted btw :)
c|-------------------------------------|

d|-----------------------------------------|
a|-----------------------------------------|
f|--15-14-12-14-12----12-------------------|
c|-----------------15----15-14-15-14-12~~--|
g|-----------------------------------------|
c|-----------------------------------------|

d|-----------------------------------------------|
a|--17b18--------15-------13------11~------------|
f|----------12~----------------------------------|
c|--------------------15------14-------12~~~~~~--|
g|-----------------------------------------------|
c|-----------------------------------------------|


Ok, thats it, pretty easy, esspecially if you know how to use your pinky. That makes it 
easy... ok hope it sounds right to you!! enjoy, and God bless... oh and solid state 
rocks!!

ok bye

Justin :)
comments
We did not receive enough feedback on this tab! Please rate:
print report bad tab
1 2 3 4 5
I want to post or [tab]
guest
You may want to rate the tab now too:
select rating
Please do not post tabs as comments. Select "correction" instead!