Oops, an error
Loading. Please wait.

Saints Tab

ver3
ver3

Intro

Whole song

Interactive

More versions @911Tabs.com
769 views 1 this week
no commentswrite comment
1 2 3 4 5
please rate
Autoscroll
+/-
esc
set tempo
stop
Contributor
Tuning
C G C F A D
Hey! There's an official Ultimate Guitar app which is ideal
for learning songs when you're away from computer. Get the app
WARNING: You are trying to view
                                    content from Ultimate-Guitar.com
                                    in an unauthorized application,
                                    which is prohibited.

                                    Please use an official Ultimate
                                    Guitar Tabs application for iPhone,
                                    iPad or Android to access legitimate
                                    chords, guitar, bass, and drum tabs
                                    from Ultimate-Guitar.com database.

                                    Type "ultimate guitar tabs" in Apple
                                    App Store's or Android Market's
                                    search to find the application.
#----------------------------------PLEASE NOTE---------------------------------#
#This file is the author's own work and represents their interpretation of the #
#song. You may only use this file for private study, scholarship, or research. #
#------------------------------------------------------------------------------#

SAINTS
As recorded by Destroy The Runner
(From the 2006 Album SAINTS)

Transcribed by Chris Allan
        

Words and Music by Destroy The Runner
Arranged by Destroy The Runner

Gtr I (C G C F A D) - 'Untitled'
Gtr II (C G C F A D) - 'Untitled'
Gtr III (C G C F A D) - 'Untitled'

 Intro
  Q=180
  D5
 4/4
  Gtr I
  <
  W          +W           +W
|----------|------------|--------------------|
|----------|------------|--------------------|
|----------|------------|--------------------|
|-0--------|-(0)--------|-(0)----------------|
|-0--------|-(0)--------|-(0)----------------|
|-0--------|-(0)--------|-(0)----------------|
|
| Gtr II
| W           W            E E E  E E E  E E
|----------|------------|--------------------|
|----------|------------|--------------------|
|----------|------------|--------------------|
|----------|------------|-12p0-0-10p0-0-10p0-|
|----------|------------|--------------------|
|----------|------------|--------------------|


  +W                   +W                   +W
|--------------------|--------------------|-----------------------|
|--------------------|--------------------|-----------------------|
|--------------------|--------------------|-----------------------|
|-(0)----------------|-(0)----------------|-(0)-------------------|
|-(0)----------------|-(0)----------------|-(0)-------------------|
|-(0)----------------|-(0)----------------|-(0)-------------------|
|
|  E E E  E E E  E E    E E E  E E E  E E    E E E  E E E  E E
|--------------------|--------------------|-----------------------|
|--------------------|--------------------|-----------------------|
|--------------------|--------------------|-----------------------|
|-12p0-0-10p0-0-10p0-|-12p0-0-10p0-0-10p0-|-12p0-0-10p0-0-10p0----|
|--------------------|--------------------|-----------------------|
|--------------------|--------------------|-----------------------|


  N.C.
   E E +H.               +W
|----------------------|--------------------|
|----------------------|--------------------|
|----------------------|--------------------|
|----------------------|--------------------|
|----------------------|--------------------|
|--5s8-(8)-------------|-(8)----------------|
|
|  E E  E   E E E  E E    E E E  E E E  E E
|----------------------|--------------------|
|----------------------|--------------------|
|----------------------|--------------------|
|-12p0--0--10p0-0-10p0-|-12p0-0-10p0-0-10p0-|
|----------------------|--------------------|
|----------------------|--------------------|


   W                    E E +H.
|--------------------|----------------------|
|--------------------|----------------------|
|--------------------|----------------------|
|--------------------|----------------------|
|--------------------|----------------------|
|--5-----------------|--5s7-(7)-------------|
|
|  E E E  E E E  E E    E E  E   E E E  E E
|--------------------|----------------------|
|--------------------|----------------------|
|--------------------|----------------------|
|-12p0-0-10p0-0-10p0-|-12p0--0--10p0-0-10p0-|
|--------------------|----------------------|
|--------------------|----------------------|


    D5
     E E E  E E E  E E    E E E  E E E  E E
||---------------------|--------------------|
||o--------------------|--------------------|
||---------------------|--------------------|
||--15p0-0-14p0-0-14p0-|-19p0-0-15p0-0-15p0-|
||o--------------------|--------------------|
||---------------------|--------------------|
|
|    E E E  E E E  E E    E E E  E E E  E E
||---------------------|--------------------|
||o--------------------|--------------------|
||---------------------|--------------------|
||--12p0-0-10p0-0-10p0-|-15p0-0-12p0-0-12p0-|
||o--------------------|--------------------|
||---------------------|--------------------|
|
|   Gtr III
|    E E E  Q   E  E E    E E E  Q   E  E E
||---------------------|--------------------|
||o--------------------|--------------------|
||---------------------|--------------------|
||---0-0-0--0---0--0-0-|--0-0-0--0---0--0-0-|
||o--0-0-0--0---0--0-0-|--0-0-0--0---0--0-0-|
||---0-0-0--0---0--0-0-|--0-0-0--0---0--0-0-|


   E E E  E E E  E E    E E E  E E E  E E
|--------------------|---------------------|
|--------------------|---------------------|
|--------------------|---------------------|
|-19p0-0-15p0-0-15p0-|-17p0-0-14p0-0-14p0--|
|--------------------|---------------------|
|--------------------|---------------------|
|
|  E E E  E E E  E E    E E E  E E E  E E
|--------------------|---------------------|
|--------------------|---------------------|
|--------------------|---------------------|
|-15p0-0-12p0-0-12p0-|-14p0-0-10p0-0-10p0--|
|--------------------|---------------------|
|--------------------|---------------------|
|
|  E E E  Q   E  E E    E E E  Q   E  E E
|--------------------|---------------------|
|--------------------|---------------------|
|--------------------|---------------------|
|--0-0-0--0---0--0-0-|--0-0-0--0---0--0-0--|
|--0-0-0--0---0--0-0-|--0-0-0--0---0--0-0--|
|--0-0-0--0---0--0-0-|--0-0-0--0---0--0-0--|


  Bb5
   E E E  E E E  E E    E E E  E E E  E E
|--------------------|--------------------|
|--------------------|--------------------|
|--------------------|--------------------|
|-15p0-0-14p0-0-14p0-|-19p0-0-15p0-0-15p0-|
|--------------------|--------------------|
|--------------------|--------------------|
|
|  E E E  E E E  E E    E E E  E E E  E E
|--------------------|--------------------|
|--------------------|--------------------|
|--------------------|--------------------|
|-12p0-0-10p0-0-10p0-|-15p0-0-12p0-0-12p0-|
|--------------------|--------------------|
|--------------------|--------------------|
|
|  E E E  Q   E  E E    E E E  Q   E  E E
|--------------------|--------------------|
|--------------------|--------------------|
|--------------------|--------------------|
|--8-8-8--8---8--8-8-|--8-8-8--8---8--8-8-|
|--8-8-8--8---8--8-8-|--8-8-8--8---8--8-8-|
|--8-8-8--8---8--8-8-|--8-8-8--8---8--8-8-|


  G5
   E E E  E E E  E E    E E E  E E E  E E
|--------------------|---------------------||
|--------------------|--------------------o||
|--------------------|---------------------||
|-19p0-0-15p0-0-15p0-|-17p0-0-14p0-0-14p0--||
|--------------------|--------------------o||
|--------------------|---------------------||
|
|  E E E  E E E  E E    E E E  E E E  E E
|--------------------|---------------------||
|--------------------|--------------------o||
|--------------------|---------------------||
|-15p0-0-12p0-0-12p0-|-14p0-0-10p0-0-10p0--||
|--------------------|--------------------o||
|--------------------|---------------------||
|
|  E E E  Q   E  E E    E E E  Q   E  E E
|--------------------|---------------------||
|--------------------|--------------------o||
|--------------------|---------------------||
|--5-5-5--5---5--5-5-|--5-5-5--5---5--5-5--||
|--5-5-5--5---5--5-5-|--5-5-5--5---5--5-5-o||
|--5-5-5--5---5--5-5-|--5-5-5--5---5--5-5--||


 Verse 1
  D5
   E  E  +H.             +W
|---------------------|-------------------|
|---------------------|-------------------|
|---------------------|-------------------|
|-14h15-(15)----------|-(15)--------------|
|---------------------|-------------------|
|---------------------|-------------------|
|
|  E  E  +H.             +W
|---------------------|-------------------|
|---------------------|-------------------|
|---------------------|-------------------|
|-10h12-(12)----------|-(12)--------------|
|---------------------|-------------------|
|---------------------|-------------------|
|
|  E  E   E  Q  E E E     E  E E Q  E E E
|---------------------|-------------------|
|---------------------|-------------------|
|---------------------|-------------------|
|--0--0---0--0--0-0-0-|---0--0-0-0--0-0-0-|
|--0--0---0--0--0-0-0-|---0--0-0-0--0-0-0-|
|--0--0---0--0--0-0-0-|---0--0-0-0--0-0-0-|


   W                 Q.      Q.     Q
|-----------------|---------------------|
|-----------------|---------------------|
|-14--------------|---------------------|
|-----------------|-17------15-----14---|
|-----------------|---------------------|
|-----------------|---------------------|
|
|  W                 Q.      Q.     Q
|-----------------|---------------------|
|-----------------|---------------------|
|-----------------|---------------------|
|-15--------------|-14------12-----10---|
|-----------------|---------------------|
|-----------------|---------------------|
|
|  E E E Q  E E E    E  E E  Q   E  E E
|-----------------|---------------------|
|-----------------|---------------------|
|-----------------|---------------------|
|--0-0-0-0--0-0-0-|--0--0-0--0---0--0-0-|
|--0-0-0-0--0-0-0-|--0--0-0--0---0--0-0-|
|--0-0-0-0--0-0-0-|--0--0-0--0---0--0-0-|


  Bb5
   E  E  +H.             +W
|---------------------|-------------------|
|---------------------|-------------------|
|---------------------|-------------------|
|-14h15-(15)----------|-(15)--------------|
|---------------------|-------------------|
|---------------------|-------------------|
|
|  E  E  +H.             +W
|---------------------|-------------------|
|---------------------|-------------------|
|---------------------|-------------------|
|-10h12-(12)----------|-(12)--------------|
|---------------------|-------------------|
|---------------------|-------------------|
|
|  E  E   E  Q  E E E     E  E E Q  E E E
|---------------------|-------------------|
|---------------------|-------------------|
|---------------------|-------------------|
|--8--8---8--8--8-8-8-|---8--8-8-8--8-8-8-|
|--8--8---8--8--8-8-8-|---8--8-8-8--8-8-8-|
|--8--8---8--8--8-8-8-|---8--8-8-8--8-8-8-|


  G5
   W                 Q.      Q.     Q
|-----------------|---------------------|
|-----------------|---------------------|
|-14--------------|-15------14----------|
|-----------------|----------------17---|
|-----------------|---------------------|
|-----------------|---------------------|
|
|  W                 Q.      Q.     Q
|-----------------|---------------------|
|-----------------|---------------------|
|-----------------|-12------------------|
|-15--------------|---------15-----14---|
|-----------------|---------------------|
|-----------------|---------------------|
|
|  E E E Q  E E E    E  E E  Q   E  E E
|-----------------|---------------------|
|-----------------|---------------------|
|-----------------|---------------------|
|--5-5-5-5--5-5-5-|--5--5-5--5---5--5-5-|
|--5-5-5-5--5-5-5-|--5--5-5--5---5--5-5-|
|--5-5-5-5--5-5-5-|--5--5-5--5---5--5-5-|


  D5
   E  E  +H.             +W
|---------------------|-------------------|
|---------------------|-------------------|
|---------------------|-------------------|
|-15p14-(14)----------|-(14)--------------|
|---------------------|-------------------|
|---------------------|-------------------|
|
|  E  E  +H.             +W
|---------------------|-------------------|
|---------------------|-------------------|
|---------------------|-------------------|
|-12p10-(10)----------|-(10)--------------|
|---------------------|-------------------|
|---------------------|-------------------|
|
|  E  E   E  Q  E E E     E  E E Q  E E E
|---------------------|-------------------|
|---------------------|-------------------|
|---------------------|-------------------|
|--0--0---0--0--0-0-0-|---0--0-0-0--0-0-0-|
|--0--0---0--0--0-0-0-|---0--0-0-0--0-0-0-|
|--0--0---0--0--0-0-0-|---0--0-0-0--0-0-0-|


   W                 Q.      Q.     Q
|-----------------|---------------------|
|-----------------|---------------------|
|-14--------------|---------------------|
|-----------------|-17------15-----14---|
|-----------------|---------------------|
|-----------------|---------------------|
|
|  W                 Q.      Q.     Q
|-----------------|---------------------|
|-----------------|---------------------|
|-----------------|---------------------|
|-15--------------|-14------12-----10---|
|-----------------|---------------------|
|-----------------|---------------------|
|
|  E E E Q  E E E    E  E E  Q   E  E E
|-----------------|---------------------|
|-----------------|---------------------|
|-----------------|---------------------|
|--0-0-0-0--0-0-0-|--0--0-0--0---0--0-0-|
|--0-0-0-0--0-0-0-|--0--0-0--0---0--0-0-|
|--0-0-0-0--0-0-0-|--0--0-0--0---0--0-0-|


  Bb5
   E  E  +H.             +W
|---------------------|-------------------|
|---------------------|-------------------|
|---------------------|-------------------|
|-14h15-(15)----------|-(15)--------------|
|---------------------|-------------------|
|---------------------|-------------------|
|
|  E  E  +H.             +W
|---------------------|-------------------|
|---------------------|-------------------|
|---------------------|-------------------|
|-10h12-(12)----------|-(12)--------------|
|---------------------|-------------------|
|---------------------|-------------------|
|
|  E  E   E  Q  E E E     E  E E Q  E E E
|---------------------|-------------------|
|---------------------|-------------------|
|---------------------|-------------------|
|--8--8---8--8--8-8-8-|---8--8-8-8--8-8-8-|
|--8--8---8--8--8-8-8-|---8--8-8-8--8-8-8-|
|--8--8---8--8--8-8-8-|---8--8-8-8--8-8-8-|


  G5
   W                 E  E  E   E  E  E  E  E
|-----------------|--------------------------||
|-----------------|--------------------------||
|-14--------------|-15-14--------14----------||
|-----------------|-------17--15----17-15-14-||
|-----------------|--------------------------||
|-----------------|--------------------------||
|
|  W                 E  E  E   E  E  E  E  E
|-----------------|--------------------------||
|-----------------|--------------------------||
|-----------------|--------------------------||
|-15--------------|-17-15-14-----15-14-------||
|-----------------|-----------17-------17-15-||
|-----------------|--------------------------||
|
|  E E E Q  E E E    E  E  H.
|-----------------|--------------------------||
|-----------------|--------------------------||
|-----------------|--------------------------||
|--5-5-5-5--5-5-5-|--5-----------------------||
|--5-5-5-5--5-5-5-|--5-----------------------||
|--5-5-5-5--5-5-5-|--5-----------------------||


   Chorus
    $
    D5
     E  E  E  E  E  E  E  E    E  E  E  E  E  E  E  E
||--------------------------|-------------------------|
||o-------------------------|-------------------------|
||--11-11-11-11-11-11-11-11-|-12-12-12-12-12-12-12-12-|
||---x--x--x--x--x--x--x--x-|--x--x--x--x--x--x--x--x-|
||o--9--9--9--9--9--9--9--9-|-10-10-10-10-10-10-10-10-|
||--------------------------|-------------------------|
|
|    E  E  E  E  E  E  E  E    E  E  E  E  E  E  E  E
||--------------------------|-------------------------|
||o-------------------------|-------------------------|
||--------------------------|-------------------------|
||---0--0--0--0--0--0--0--0-|--0--0--0--0--0--0--0--0-|
||o--0--0--0--0--0--0--0--0-|--0--0--0--0--0--0--0--0-|
||---0--0--0--0--0--0--0--0-|--0--0--0--0--0--0--0--0-|


                             To Coda
  Bb5               G5
  E E E E E E E E   E E E E E E E E   4x
|-----------------|-------------------||
|-----------------|------------------o||
|-7-7-7-7-7-7-7-7-|-9-9-9-9-9-9-9-9---||
|-x-x-x-x-x-x-x-x-|-x-x-x-x-x-x-x-x---||
|-5-5-5-5-5-5-5-5-|-7-7-7-7-7-7-7-7--o||
|-----------------|-------------------||
|
| E E E E E E E E   E E E E E E E E   4x
|-----------------|-------------------||
|-----------------|------------------o||
|-----------------|-------------------||
|-8-8-8-8-8-8-8-8-|-5-5-5-5-5-5-5-5---||
|-8-8-8-8-8-8-8-8-|-5-5-5-5-5-5-5-5--o||
|-8-8-8-8-8-8-8-8-|-5-5-5-5-5-5-5-5---||


 Verse 2
  N.C.
  Gtrs I, II
    PM|   PM|   PM    PM|   PM|   PM    PM|   PM|   PM    PM|   PM|   PM
  E E E E E E E E   E E E E E E E E   E E E E E E E E   E E E E E E E E
|-----------------|-----------------|-----------------|-----------------|
|-----------------|-----------------|-----------------|-----------------|
|-----------------|-----------------|-----------------|-----------------|
|-----------------|-3---------------|-3---------------|-2---------------|
|-5-----3-----3---|-------5-----5---|-------5-----5---|-------3-----3---|
|---0-0---0-0---0-|---0-0---0-0---0-|---0-0---0-0---0-|---0-0---0-0---0-|


  N.C.
     PM|    PM|    PM    PM|    PM|    PM    PM|   PM|   PM    PM|   PM|   PM
   E E E  E E E  E E   E E E  E E E  E E   E E E E E E E E   E E E E E E E E
|--------------------|-------------------|-----------------|-----------------|
|--------------------|-------------------|-----------------|-----------------|
|--------------------|-------------------|-----------------|-----------------|
|--------------------|-------------------|-----------------|-----------------|
|--------------------|-8-----------------|-8-----5-----5---|-7-----3-----3---|
|-12-8-8-10-8-8-10-8-|---8-8-12-8-8-12-8-|---5-5---5-5---5-|---5-5---5-5---5-|


  N.C.
  Gtr I
    PM|   PM|   PM    PM|   PM|   PM    PM|   PM|   PM    PM|   PM|   PM
  E E E E E E E E   E E E E E E E E   E E E E E E E E   E E E E E E E E
|-----------------|-----------------|-----------------|-----------------|
|-----------------|-----------------|-----------------|-----------------|
|-----------------|-----------------|-----------------|-----------------|
|-----------------|-3---------------|-3---------------|-2---------------|
|-5-----3-----3---|-------5-----5---|-------5-----5---|-------3-----3---|
|---0-0---0-0---0-|---0-0---0-0---0-|---0-0---0-0---0-|---0-0---0-0---0-|
|
| Gtr II
|   PM|   PM|   PM    PM|   PM|   PM    PM|   PM|   PM    PM|   PM|   PM
| E E E E E E E E   E E E E E E E E   E E E E E E E E   E E E E E E E E
|-----------------|-----------------|-----------------|-----------------|
|-----------------|-----------------|-----------------|-----------------|
|-----------------|-----------------|-----------------|-----------------|
|-----------------|-7---------------|-7---------------|-5---------------|
|-8-----7-----7---|-------8-----8---|-------8-----8---|-------7-----7---|
|---0-0---0-0---0-|---0-0---0-0---0-|---0-0---0-0---0-|---0-0---0-0---0-|


  N.C.
     PM|    PM|    PM    PM|    PM|    PM    PM|   PM|   PM    PM|   PM|   PM
   E E E  E E E  E E   E E E  E E E  E E   E E E E E E E E   E E E E E E E E
|--------------------|-------------------|-----------------|-----------------|
|--------------------|-------------------|-----------------|-----------------|
|--------------------|-------------------|-----------------|-----------------|
|--------------------|-------------------|-----------------|-----------------|
|--------------------|-8-----------------|-8-----5-----5---|-7-----3-----3---|
|-12-8-8-10-8-8-10-8-|---8-8-12-8-8-12-8-|---5-5---5-5---5-|---5-5---5-5---5-|
|
|    PM|    PM|    PM    PM|    PM|    PM    PM|   PM|   PM    PM|   PM|   PM
|  E E E  E E E  E E   E E E  E E E  E E   E E E E E E E E   E E E E E E E E
|--------------------|-------------------|-----------------|-----------------|
|--------------------|-------------------|-----------------|-----------------|
|--------------------|-------------------|-----------------|-----------------|
|--------------------|-7-----------------|-7---------------|-5---------------|
|--8------7------7---|--------8------8---|-------8-----8---|-------7-----7---|
|----8-8----8-8----8-|---8-8----8-8----8-|---5-5---5-5---5-|---5-5---5-5---5-|


  N.C.
  PM------|   PM|     PM------|   PM|
  S S E E E E E E E   S S E E E E E E E
|-------------------|-------------------|
|-------------------|-------------------|
|-------------------|-------------------|
|-------------------|-----------3-----3-|
|-----------5-----5-|-------------------|
|-0-0-0-0-0---0-0---|-0-0-0-0-0---0-0---|
|
| PM------|   PM|     PM------|   PM|
| S S E E E E E E E   S S E E E E E E E
|-------------------|-------------------|
|-------------------|-------------------|
|-------------------|-----------2-----2-|
|-----------3-----3-|-------------------|
|-------------------|-------------------|
|-0-0-0-0-0---0-0---|-0-0-0-0-0---0-0---|


  PM------|   PM|     PM------|   PM|
  S S E E E E E E E   S S E E E E E E E
|-------------------|-------------------|
|-------------------|-------------------|
|-------------------|-------------------|
|-----------3-----3-|-----------2-----2-|
|-------------------|-------------------|
|-0-0-0-0-0---0-0---|-0-0-0-0-0---0-0---|
|
| PM------|   PM|     PM------|   PM|
| S S E E E E E E E   S S E E E E E E E
|-------------------|-------------------|
|-------------------|-------------------|
|-----------2-----2-|-------------------|
|-------------------|-----------5-----5-|
|-------------------|-------------------|
|-0-0-0-0-0---0-0---|-0-0-0-0-0---0-0---|


                                                    D.S. al Coda
  N.C.
  PM------|   PM|     PM------|   PM|     PM------|   PM|
  S S E E E E E E E   S S E E E E E E E   S S E E E E E E E   W
|-------------------|-------------------|-------------------|-------||
|-------------------|-------------------|-------------------|-------||
|-------------------|-------------------|-------------------|-------||
|-------------------|-------------------|-------------------|-------||
|-----------7-----8-|-----------8-----7-|-----------7-----7-|-------||
|-8-8-8-8-8---8-8---|-8-8-8-8-8---8-8---|-5-5-5-5-5---5-5---|-------||
|
| PM------|   PM|     PM------|   PM|     PM------|   PM|
| S S E E E E E E E   S S E E E E E E E   S S E E E E E E E   W
|-------------------|-------------------|-------------------|-------||
|-------------------|-------------------|-------------------|-------||
|-------------------|-------------------|-------------------|-------||
|-----------5-----7-|-----------7-----5-|-----------5-----5-|-------||
|-------------------|-------------------|-------------------|-------||
|-8-8-8-8-8---8-8---|-8-8-8-8-8---8-8---|-5-5-5-5-5---5-5---|-------||


 Bridge
  &
  D5
   W                   +W
|--------------------|--------------------|
|--------------------|--------------------|
|--------------------|--------------------|
|--0-----------------|-(0)----------------|
|--0-----------------|-(0)----------------|
|--0-----------------|-(0)----------------|
|
|  E E E  E E E  E E    E E E  E E E  E E
|--------------------|--------------------|
|--------------------|--------------------|
|--------------------|--------------------|
|-12p0-0-10p0-0-10p0-|-12p0-0-10p0-0-10p0-|
|--------------------|--------------------|
|--------------------|--------------------|


  +W                   +W
|--------------------|--------------------|
|--------------------|--------------------|
|--------------------|--------------------|
|-(0)----------------|-(0)----------------|
|-(0)----------------|-(0)----------------|
|-(0)----------------|-(0)----------------|
|
|  E E E  E E E  E E    E E E  E E E  E E
|--------------------|--------------------|
|--------------------|--------------------|
|--------------------|--------------------|
|-12p0-0-10p0-0-10p0-|-12p0-0-10p0-0-10p0-|
|--------------------|--------------------|
|--------------------|--------------------|


  N.C.
   E E +H.               +W
|----------------------|--------------------|
|----------------------|--------------------|
|----------------------|--------------------|
|----------------------|--------------------|
|----------------------|--------------------|
|--5s8-(8)-------------|-(8)----------------|
|
|  E E  E   E E E  E E    E E E  E E E  E E
|----------------------|--------------------|
|----------------------|--------------------|
|----------------------|--------------------|
|-12p0--0--10p0-0-10p0-|-12p0-0-10p0-0-10p0-|
|----------------------|--------------------|
|----------------------|--------------------|


   W                    E E +H.
|--------------------|----------------------|
|--------------------|----------------------|
|--------------------|----------------------|
|--------------------|----------------------|
|--------------------|----------------------|
|--5-----------------|--5s7-(7)-------------|
|
|  E E E  E E E  E E    E E  E   E E E  E E
|--------------------|----------------------|
|--------------------|----------------------|
|--------------------|----------------------|
|-12p0-0-10p0-0-10p0-|-12p0--0--10p0-0-10p0-|
|--------------------|----------------------|
|--------------------|----------------------|


  D5
   W                   +W
|--------------------|--------------------|
|--------------------|--------------------|
|--------------------|--------------------|
|--0-----------------|-(0)----------------|
|--0-----------------|-(0)----------------|
|--0-----------------|-(0)----------------|
|
|  E E E  E E E  E E    E E E  E E E  E E
|--------------------|--------------------|
|--------------------|--------------------|
|--------------------|--------------------|
|-12p0-0-10p0-0-10p0-|-12p0-0-10p0-0-10p0-|
|--------------------|--------------------|
|--------------------|--------------------|


  +W                   +W
|--------------------|--------------------|
|--------------------|--------------------|
|--------------------|--------------------|
|-(0)----------------|-(0)----------------|
|-(0)----------------|-(0)----------------|
|-(0)----------------|-(0)----------------|
|
|  E E E  E E E  E E    E E E  E E E  E E
|--------------------|--------------------|
|--------------------|--------------------|
|--------------------|--------------------|
|-12p0-0-10p0-0-10p0-|-12p0-0-10p0-0-10p0-|
|--------------------|--------------------|
|--------------------|--------------------|


  Bb5
   W                   +W
|--------------------|--------------------|
|--------------------|--------------------|
|--------------------|--------------------|
|--8-----------------|-(8)----------------|
|--8-----------------|-(8)----------------|
|--8-----------------|-(8)----------------|
|
|  E E E  E E E  E E    E E E  E E E  E E
|--------------------|--------------------|
|--------------------|--------------------|
|--------------------|--------------------|
|-12p0-0-10p0-0-10p0-|-12p0-0-10p0-0-10p0-|
|--------------------|--------------------|
|--------------------|--------------------|


  G5
   W                   +W
|--------------------|--------------------|
|--------------------|--------------------|
|--------------------|--------------------|
|--5-----------------|-(5)----------------|
|--5-----------------|-(5)----------------|
|--5-----------------|-(5)----------------|
|
|  E E E  E E E  E E    E E E  E E E  E E
|--------------------|--------------------|
|--------------------|--------------------|
|--------------------|--------------------|
|-12p0-0-10p0-0-10p0-|-12p0-0-10p0-0-10p0-|
|--------------------|--------------------|
|--------------------|--------------------|


    D5
     W                   +W
||---------------------|--------------------|
||o--------------------|--------------------|
||---------------------|--------------------|
||---0-----------------|-(0)----------------|
||o--0-----------------|-(0)----------------|
||---0-----------------|-(0)----------------|
|
|    E E E  E E E  E E    E E E  E E E  E E
||---------------------|--------------------|
||o--------------------|--------------------|
||---------------------|--------------------|
||--12p0-0-10p0-0-10p0-|-15p0-0-12p0-0-12p0-|
||o--------------------|--------------------|
||---------------------|--------------------|


  +W                   +W
|--------------------|---------------------|
|--------------------|---------------------|
|--------------------|---------------------|
|-(0)----------------|-(0)-----------------|
|-(0)----------------|-(0)-----------------|
|-(0)----------------|-(0)-----------------|
|
|  E E E  E E E  E E    E E E  E E E  E E
|--------------------|---------------------|
|--------------------|---------------------|
|--------------------|---------------------|
|-15p0-0-12p0-0-12p0-|-14p0-0-10p0-0-10p0--|
|--------------------|---------------------|
|--------------------|---------------------|


  Bb5
   W                   +W
|--------------------|--------------------|
|--------------------|--------------------|
|--------------------|--------------------|
|--8-----------------|-(8)----------------|
|--8-----------------|-(8)----------------|
|--8-----------------|-(8)----------------|
|
|  E E E  E E E  E E    E E E  E E E  E E
|--------------------|--------------------|
|--------------------|--------------------|
|--------------------|--------------------|
|-12p0-0-10p0-0-10p0-|-15p0-0-12p0-0-12p0-|
|--------------------|--------------------|
|--------------------|--------------------|


  G5
   W                   +W
|--------------------|---------------------||
|--------------------|--------------------o||
|--------------------|---------------------||
|--5-----------------|-(5)-----------------||
|--5-----------------|-(5)----------------o||
|--5-----------------|-(5)-----------------||
|
|  E E E  E E E  E E    E E E  E E E  E E
|--------------------|---------------------||
|--------------------|--------------------o||
|--------------------|---------------------||
|-15p0-0-12p0-0-12p0-|-14p0-0-10p0-0-10p0--||
|--------------------|--------------------o||
|--------------------|---------------------||


  D5
   E  E  E  E  E  E  E  E    E   E  E  E  E  E  E  E
|-------------------------|--------------------------|
|-------------------------|--------------------------|
|-11-11-11-11-11-11-11-11-|-12--12-12-12-12-12-12-12-|
|--x--x--x--x--x--x--x--x-|--x---x--x--x--x--x--x--x-|
|--9--9--9--9--9--9--9--9-|-10--10-10-10-10-10-10-10-|
|-------------------------|--------------------------|
|
|  E  E  E  E  E  E  E  E    E   E  E  E  E  E  E  E
|-------------------------|--------------------------|
|-------------------------|--------------------------|
|--7--7--7--7--7--7--7--7-|--7---7--7--7--7--7--7--7-|
|--x--x--x--x--x--x--x--x-|--x---x--x--x--x--x--x--x-|
|--5--5--5--5--5--5--5--5-|--5---5--5--5--5--5--5--5-|
|-------------------------|--------------------------|
|
| Gtr III
|  W                        +W
|-------------------------|--------------------------|
|-------------------------|--------------------------|
|-------------------------|--------------------------|
|--0----------------------|-(0)----------------------|
|--0----------------------|-(0)----------------------|
|--0----------------------|-(0)----------------------|


   E   E  E  E  E  E  E  E    E  E E E E E E E
|--------------------------|-------------------|
|--------------------------|-------------------|
|-10--10-10-10-10-10-10-10-|--9--9-9-9-9-9-9-9-|
|--x---x--x--x--x--x--x--x-|--x--x-x-x-x-x-x-x-|
|--8---8--8--8--8--8--8--8-|--7--7-7-7-7-7-7-7-|
|--------------------------|-------------------|
|
|  E   E  E  E  E  E  E  E    E  E E E E E E E
|--------------------------|-------------------|
|--------------------------|-------------------|
|--7---7--7--7--7--7--7--7-|--7--7-7-7-7-7-7-7-|
|--x---x--x--x--x--x--x--x-|--x--x-x-x-x-x-x-x-|
|--5---5--5--5--5--5--5--5-|--5--5-5-5-5-5-5-5-|
|--------------------------|-------------------|
|
| +W                         +W
|--------------------------|-------------------|
|--------------------------|-------------------|
|--------------------------|-------------------|
|-(0)----------------------|-(0)---------------|
|-(0)----------------------|-(0)---------------|
|-(0)----------------------|-(0)---------------|


  D5
   E   E  E  E  E  E  E  E    E   E  E  E  E  E  E  E
|--------------------------|--------------------------|
|--------------------------|--------------------------|
|-11--11-11-11-11-11-11-11-|-12--12-12-12-12-12-12-12-|
|--x---x--x--x--x--x--x--x-|--x---x--x--x--x--x--x--x-|
|--9---9--9--9--9--9--9--9-|-10--10-10-10-10-10-10-10-|
|--------------------------|--------------------------|
|
|  E   E  E  E  E  E  E  E    E   E  E  E  E  E  E  E
|--------------------------|--------------------------|
|--------------------------|--------------------------|
|--7---7--7--7--7--7--7--7-|--7---7--7--7--7--7--7--7-|
|--x---x--x--x--x--x--x--x-|--x---x--x--x--x--x--x--x-|
|--5---5--5--5--5--5--5--5-|--5---5--5--5--5--5--5--5-|
|--------------------------|--------------------------|
|
| +W                         +W
|--------------------------|--------------------------|
|--------------------------|--------------------------|
|--------------------------|--------------------------|
|-(0)----------------------|-(0)----------------------|
|-(0)----------------------|-(0)----------------------|
|-(0)----------------------|-(0)----------------------|


   E   E  E  E  E  E  E  E    E  E E E  E  +E      +E   E
|--------------------------|------------------------------||
|--------------------------|------------------------------||
|-10--10-10-10-10-10-10-10-|--9--9-9-9--9--(9)b11r=(9)----||
|--x---x--x--x--x--x--x--x-|--x--x-x-x------------------7-||
|--8---8--8--8--8--8--8--8-|--7--7-7-7--------------------||
|--------------------------|------------------------------||
|
|  E   E  E  E  E  E  E  E    E  E E E  E  +E      +E   E
|--------------------------|------------------------------||
|--------------------------|------------------------------||
|--7---7--7--7--7--7--7--7-|--7--7-7-7-12-(12)b14r(12)----||
|--x---x--x--x--x--x--x--x-|--x--x-x-x-----------------10-||
|--5---5--5--5--5--5--5--5-|--5--5-5-5--------------------||
|--------------------------|------------------------------||
|
| +W                         +W
|--------------------------|------------------------------||
|--------------------------|------------------------------||
|--------------------------|------------------------------||
|-(0)----------------------|-(0)--------------------------||
|-(0)----------------------|-(0)--------------------------||
|-(0)----------------------|-(0)--------------------------||


   Out Chorus
    D5
     E  E  E  E  E  E  E  E    E  E  E  E  E  E  E  E
||--------------------------|-------------------------|
||o-------------------------|-------------------------|
||--11-11-11-11-11-11-11-11-|-12-12-12-12-12-12-12-12-|
||---x--x--x--x--x--x--x--x-|--x--x--x--x--x--x--x--x-|
||o--9--9--9--9--9--9--9--9-|-10-10-10-10-10-10-10-10-|
||--------------------------|-------------------------|
|
|    E  E  E  E  E  E  E  E    E  E  E  E  E  E  E  E
||--------------------------|-------------------------|
||o-------------------------|-------------------------|
||--------------------------|-------------------------|
||---0--0--0--0--0--0--0--0-|--0--0--0--0--0--0--0--0-|
||o--0--0--0--0--0--0--0--0-|--0--0--0--0--0--0--0--0-|
||---0--0--0--0--0--0--0--0-|--0--0--0--0--0--0--0--0-|


 1.,2.,3.,4.,5.,6.,7.
  Bb5               G5
  E E E E E E E E   E E E E E E E E   8x
|-----------------|-------------------||
|-----------------|------------------o||
|-7-7-7-7-7-7-7-7-|-9-9-9-9-9-9-9-9---||
|-x-x-x-x-x-x-x-x-|-x-x-x-x-x-x-x-x---||
|-5-5-5-5-5-5-5-5-|-7-7-7-7-7-7-7-7--o||
|-----------------|-------------------||
|
| E E E E E E E E   E E E E E E E E   8x
|-----------------|-------------------||
|-----------------|------------------o||
|-----------------|-------------------||
|-8-8-8-8-8-8-8-8-|-5-5-5-5-5-5-5-5---||
|-8-8-8-8-8-8-8-8-|-5-5-5-5-5-5-5-5--o||
|-8-8-8-8-8-8-8-8-|-5-5-5-5-5-5-5-5---||


  8.
  Bb5        G5         D5
  W          W           W           +W            +W
|----------|----------|-----------|-------------|---------*|
|----------|----------|-----------|-------------|---------*|
|-7--------|-9--------|-11--------|-(11)--------|-(11)----*|
|-x--------|-x--------|--x--------|--(x)--------|--(x)----*|
|-5--------|-7--------|--9--------|--(9)--------|--(9)----*|
|----------|----------|-----------|-------------|---------*|
|
| W          W           W           +W            +W
|----------|----------|-----------|-------------|---------*|
|----------|----------|-----------|-------------|---------*|
|----------|----------|-----------|-------------|---------*|
|-8--------|-5--------|--0--------|--(0)--------|--(0)----*|
|-8--------|-5--------|--0--------|--(0)--------|--(0)----*|
|-8--------|-5--------|--0--------|--(0)--------|--(0)----*|



Duration Legend
---------------
W - whole; H - half; Q - quarter; E - 8th; S - 16th; T - 32nd; X - 64th; a - acciaccatura
+ - note tied to previous; . - note dotted; .. - note double dotted
Uncapitalized letters represent notes that are staccato (1/2 duration)
Irregular groupings are notated above the duration line
Duration letters will always appear directly above the note/fret number it represents the
duration for.  Duration letters with no fret number below them represent rests.  Multi-
bar rests are notated in the form Wxn, where n is the number of bars to rest for.  Low
melody durations appear below the staff

Tablature Legend
----------------
 h   - hammer-on
 p   - pull-off
 b   - bend
 pb  - pre-bend
 r   - bend release (if no number after the r, then release immediately)
 /\  - slide into or out of (from/to "nowhere")
 s   - legato slide
 S   - shift slide
 - natural harmonic
[n]  - artificial harmonic
n(n) - tapped harmonic
 ~   - vibrato
 tr  - trill
 T   - tap
 TP  - trem. picking
 PM  - palm muting
\n/  - tremolo bar dip; n = amount to dip
 \n  - tremolo bar down
 n/  - tremolo bar up
/n\  - tremolo bar inverted dip
 =   - hold bend; also acts as connecting device for hammers/pulls
 <> - volume swell (louder/softer)
 x   - on rhythm slash represents muted slash
 o   - on rhythm slash represents single note slash

Misc Legend
-----------
 |  - bar
||  - double bar
||o - repeat start
o|| - repeat end
*|  - double bar (ending)
 :  - bar (freetime)
 $  - Segno
 &  - Coda
Tempo markers -  = BPM(8/16=s8/s16), where s8 = swing 8ths, s16 = swing 16ths

comments
We did not receive enough feedback on this tab! Please rate:
print report bad tab
1 2 3 4 5
I want to post or [tab]
guest
You may want to rate the tab now too:
select rating
Please do not post tabs as comments. Select "correction" instead!