Oops, an error
Loading. Please wait.

There Can Be No Hesitation Tab

ver1
ver1

Intro

Whole song

Interactive

More versions @911Tabs.com
798 views 1 this week
1 commentread comment
1 2 3 4 5
excellent!
x 2
add to favorites launch autoscroll
font size
0
reset
Autoscroll
+/-
esc
set tempo
stop
Contributor
WARNING: You are trying to view
                                    content from Ultimate-Guitar.com
                                    in an unauthorized application,
                                    which is prohibited.

                                    Please use an official Ultimate
                                    Guitar Tabs application for iPhone,
                                    iPad or Android to access legitimate
                                    chords, guitar, bass, and drum tabs
                                    from Ultimate-Guitar.com database.

                                    Type "ultimate guitar tabs" in Apple
                                    App Store's or Android Market's
                                    search to find the application.
\\\\\\\\\\\\\\\\\\\\\\\\\\\\\\\\\\\\\\\\\\\\\\\\\\\\\\\\\\\\\\\\\\\\\\\
|---------------------------------------------------------------------|
|---------------------------------------------------------------------|
|----------12---------------------12-14-10-12-----------12------------|
|-12-15-14-----15-14-12--15-14-15--------------12-15-14-----15-14-12--|
|---------------------------------------------------------------------|
|---------------------------------------------------------------------
                                                                                      
|---------------------------------------------------------------------|
|---------------------------------------------------------------------|
|---------14-15-12-14-----------12---------------------12-14-10-12----|
|15-14-12--------------12-15-14-----15-14-12--15-14-15----------------|
|---------------------------------------------------------------------|
|---------------------------------------------------------------------|


|---------------------------------------------------------------------|
|---------------------------------------------------------------------|
|----------12---------------------------------------------------------|
|-12-15-14-----15-14-12--15-14-12-9-10-12-----------------------------|
|---------------------------------------------------------------------|
|---------------------------------------------------------------------|
(times 2)
\\\\\\\\\\\\\\\\\\\\\\\\\\\\\\\\\\\\\\\\\\\\\\\\\\\\\\\\\\\\\\\\\\\\\\\
|---------------------------------------------------------------------|
|---------------------------------------------------------------------|
|---------------------------------------------------------------------|
|---------8--------------------8-10-7-8----------8--------------------|
|-8-12-10----12-10-8--12-10-12-----------8-12-10----12-10-8--12-10-8--|
|---------------------------------------------------------------------|


|---------------------------------------------------------------------|
|---------------------------------------------------------------------|
|---------------------------------------------------------------------|
|-10-12-8-10----------8--------------------8-10-7-8-------------------|
|-------------8-12-10----12-10-8--12-10-12----------------------------|
|---------------------------------------------------------------------|


|---------------------------------------------------------------------|
|---------------------------------------------------------------------|
|---------------------------------------------------------------------|
|---------8-----------------------------------------------------------|
|-8-12-10----12-10-8--12-10-8-7-8-10----------------------------------|
|---------------------------------------------------------------------|
(times 2)

\\\\\\\\\\\\\\\\\\\\\\\\\\\\\\\\\\\\\\\\\\\\\\\\\\\\\\\\\\\\\\\\\\\\\\\
|---------------------------------------------------------------------|
|---------------------------------------------------------------------|
|---------------------------------------------------------------------|
|---------8-------------10---------8---7------------------------------|
|-----8-----8-------8-----10-------------8-----7-8---8-7-0------------|  
|-0-0---0-----0-8-8---8------8-5-5---5-----5-7-----5-----0------------|
    .   .     .   .   .      .   .   .     .
(times 3)

|---------------------------------------------------------------------|
|---------------------------------------------------------------------|
|---------------------------------------------------------------------|
|---------8-------------10---------8---7------------------------------|
|-----8-----8-------8-----10-------------8---7--5---------------------|
|-0-0---0-----0-8-8---8------8-5-5---5-----5-7--5---------------------|
    .   .     .   .   .      .   .   .     .

|---------------------------------------------------------------------|
|---------------------------------------------------------------------|
|-10-(times16)--12-(times8)--14-(times8)------------------------------|
|-x--(times16)--x--(times8)--X--(times8)------------------------------|
|-8--(times16)--10-(times8)--12-(times8)------------------------------|
|---------------------------------------------------------------------|
    
|---------------------------------------------------------------------|
|---------------------------------------------------------------------|
|---------------------------------------------------------------------|
|-------5---------------5-7-3-5--------5---------------7-8-5-7--------|
|-5-8-7----8-7-5--8-7-8----------5-8-7----8-7-5--8-7-5----------------|
|---------------------------------------------------------------------|

|---------------------------------------------------------------------|
|---------------------------------------------------------------------|
|-10-(times16)--12-(times8)--14-(times8)------------------------------|
|-x--(times16)--x--(times8)--X--(times8)------------------------------|
|-8--(times16)--10-(times8)--12-(times8)------------------------------|
|---------------------------------------------------------------------|


|---------------------------------------------------------------------|
|---------------------------------------------------------------------|
|---------------------------------------------------------------------|
|-------5---------------5-7-3-5--------5---------------7-8-5-7--------|
|-5-8-7----8-7-5--8-7-8----------5-8-7----8-7-5--8-7-5----------------|
|---------------------------------------------------------------------|


|---------------------------------------------------------------------|
|---------------------------------------------------------------------|
|---------------------------------------------------------------------|
|-------5---------------5-7-3-5--------5------------------------------|
|-5-8-7----8-7-5--8-7-8----------5-8-7----8-7-5--8-7-5-3-5-7----------|
|---------------------------------------------------------------------|

|---------------------------------------------------------------------|
|---------------------------------------------------------------------|
|---------------------------------------------------------------------|
|---------8--------------------8-10-7-8----------8--------------------|
|-8-12-10----12-10-8--12-10-12-----------8-12-10----12-10-8--12-10-8--|
|---------------------------------------------------------------------|


|---------------------------------------------------------------------|
|---------------------------------------------------------------------|
|---------------------------------------------------------------------|
|-10-12-8-10----------8--------------------8-10-7-8-------------------|
|-------------8-12-10----12-10-8--12-10-12----------------------------|
|---------------------------------------------------------------------|


|---------------------------------------------------------------------|
|---------------------------------------------------------------------|
|---------------------------------------------------------------------|
|---------8-----------------------------------------------------------|
|-8-12-10----12-10-8--12-10-8-7-8-10----------------------------------|
|---------------------------------------------------------------------|

\\\\\\\\\\\\\\\\\\\\\\\\\\\\\\\\\\\\\\\\\\\\\\\\\\\\\\\\\\\\\\\\\\\\\\\
|---------------------------------------------------------------------|
|---------------------------------------------------------------------|
|---------------------------------------------------------------------|
|---------8-------------10---------8---7------------------------------|
|-----8-----8-------8-----10-------------8-----7-8---8-7-0------------|  
|-0-0---0-----0-8-8---8------8-5-5---5-----5-7-----5-----0------------|
    .   .     .   .   .      .   .   .     .
(times 3)

|---------------------------------------------------------------------|
|---------------------------------------------------------------------|
|---------------------------------------------------------------------|
|---------8-------------10---------8---7------------------------------|
|-----8-----8-------8-----10-------------8---7--5---------------------|
|-0-0---0-----0-8-8---8------8-5-5---5-----5-7--5---------------------|
    .   .     .   .   .      .   .   .     .

|---------------------------------------------------------------------|
|---------------------------------------------------------------------|
|-10-(times16)--12-(times8)--14-(times8)------------------------------|
|-x--(times16)--x--(times8)--X--(times8)------------------------------|
|-8--(times16)--10-(times8)--12-(times8)------------------------------|
|---------------------------------------------------------------------|

|---------------------------------------------------------------------|
|---------------------------------------------------------------------|
|---------------------------------------------------------------------|
|-------5---------------5-7-3-5--------5---------------7-8-5-7--------|
|-5-8-7----8-7-5--8-7-8----------5-8-7----8-7-5--8-7-5----------------|
|---------------------------------------------------------------------|

|---------------------------------------------------------------------|
|---------------------------------------------------------------------|
|-10-(times16)--12-(times8)--14-(times8)------------------------------|
|-x--(times16)--x--(times8)--X--(times8)------------------------------|
|-8--(times16)--10-(times8)--12-(times8)------------------------------|
|---------------------------------------------------------------------|

\\\\\\\\\\\\\\\\\\\\\\\\\\\\\\\\\\\\\\\\\\\\\\\\\\\\\\\\\\\\\\\\\\\\\\\
|---------------------------------------------------------------------|
|---------------------------------------------------------------------|
|---------------------------------------------------------------------|
|---------------------------------------------------------------------|
|---------------------------------------------------------------------|
|-000-000-7h10--0-000-5-8-7-3-----------------------------------------|
  ... ...       . ...
(times 6)
\\\\\\\\\\\\\\\\\\\\\\\\\\\\\\\\\\\\\\\\\\\\\\\\\\\\\\\\\\\\\\\\\\\\\\\
|---------------------------------------------------------------------|
|---------------------------------------------------------------------|
|---------------------------------------------------------------------|
|---------------------------------------------------------------------|
|---------------------------------------------------------------------|
|-000-000-000-7h10--0-0-000-5-8-7-3-----------------------------------|
  ... ... ...       . . ...
(times 4)

|---------------------------------------------------------------------|
|---------------------------------------------------------------------|
|-10-(times16)--12-(times8)--14-(times8)------------------------------|
|-x--(times16)--x--(times8)--X--(times8)------------------------------|
|-8--(times16)--10-(times8)--12-(times8)------------------------------|
|---------------------------------------------------------------------|

\\\\\\\\\\\\\\\\\\\\\\\\\\\\\\\\\\\\\\\\\\\\\\\\\\\\\\\\\\\\\\\\\\\\\\\
|---------------------------------------------------------------------|
|---------------------------------------------------------------------|
|---------------------------------------------------------------------|
|---------------------------------------------------------------------|
|---------------------------------------------------------------------|
|-000-000-7h10--0-000-5-8-7-3-----------------------------------------|
  ... ...       . ...
(times 2)

\\\\\\\\\\\\\\\\\\\\\\\\\\\\\\\\\\\\\\\\\\\\\\\\\\\\\\\\\\\\\\\\\\\\\\\
|---------------------------------------------------------------------|
|---------------------------------------------------------------------|
|-10-(times16)--12-(times8)--14-(times8)------------------------------|
|-x--(times16)--x--(times8)--X--(times8)------------------------------|
|-8--(times16)--10-(times8)--12-(times8)------------------------------|
|---------------------------------------------------------------------|
(times 2)

\\\\\\\\\\\\\\\\\\\\\\\\\\\\\\\\\\\\\\\\\\\\\\\\\\\\\\\\\\\\\\\\\\\\\\\
|---------------------------------------------------------------------|
|---------------------------------------------------------------------|
|---------------------------------------------------------------------|
|---------------------------------------------------------------------|
|---------------------------------------------------------------------|
|-000-000-000-7h10--0-0-000-5-8-7-3-----------------------------------|
  ... ... ...       . . ...
(times 8)

guitar 1
|---------------------------------------------------------------------|
|---------------------------------------------------------------------|
|---------------------------------------------------------------------|
|---------------------------------------------------------------------|
|---------------------------------------------------------------------|
|-000-000-000-000-----------------------------------------------------|
  ... ... ... ...

guitar 2
|---------------------------------------------------------------------|
|---------------------------------------------------------------------|
|---------------------------------------------------------------------|
|---------------------------------------------------------------------|
|---------------------------------------------------------------------|
|-000-000-000-000-----------------------------------------------------|
  ... ... ... ...

both guitars
|---------------------------------------------------------------------|
|---------------------------------------------------------------------|
|---------------------------------------------------------------------|
|---------------------------------------------------------------------|
|---------------------------------------------------------------------|
|-000-000-000-000-000-------------------------------------------------|
  ... ... ... ... ...
comments
We did not receive enough feedback on this tab! Please rate:
print report bad tab
1 2 3 4 5
1 comment total.
0 reply
Jayspaceison wrote on June 4 2009, 05:49 pm

this is awesome. trust me.
;)

I want to post or [tab]
guest
You may want to rate the tab now too:
select rating
Please do not post tabs as comments. Select "correction" instead!