Oops, an error
Loading. Please wait.

Thoughts In Reverse Tab

ver1
ver1

Whole song

Interactive

More versions @911Tabs.com
1,940 views 1 this week
no commentswrite comment
1 2 3 4 5
excellent!
x 2
Autoscroll
+/-
esc
set tempo
stop
Contributor
Difficulty
Tuning
intermediate
C G C F A D
Hey! There's an official Ultimate Guitar app which is ideal
for learning songs when you're away from computer. Get the app
WARNING: You are trying to view
                                    content from Ultimate-Guitar.com
                                    in an unauthorized application,
                                    which is prohibited.

                                    Please use an official Ultimate
                                    Guitar Tabs application for iPhone,
                                    iPad or Android to access legitimate
                                    chords, guitar, bass, and drum tabs
                                    from Ultimate-Guitar.com database.

                                    Type "ultimate guitar tabs" in Apple
                                    App Store's or Android Market's
                                    search to find the application.
#----------------------------------PLEASE NOTE---------------------------------#
#This file is the author's own work and represents their interpretation of the #
#song. You may only use this file for private study, scholarship, or research. #
#------------------------------------------------------------------------------#








 

 

Gtr I (C G C F A D) - 'Untitled'
Gtr II (C G C F A D) - 'Untitled'
Gtr III (C G C F A D) - 'Untitled'


  Q=184
 4/4
  Gtrs I, II
    PM--------------------------------------------------|
  S S S S S S S S S S S S S S S S   S S S S S S S S S S S S E E
|---------------------------------|-----------------------------|
|---------------------------------|-----------------------------|
|---------------------------------|-----------------------------|
|-0-------------------------------|-------------------------8-7-|
|-0-0-0---0-0-0---0-0-0---0-0-0---|-0-0-0---0-0-0---0-0-0---8-7-|
|-0-0-0---0-0-0---0-0-0---0-0-0---|-0-0-0---0-0-0---0-0-0---8-7-|


  PM----------------------------|
  S S S S S S S S S S S S S S S S   H    Q  Q
|---------------------------------|------------|
|---------------------------------|------------|
|---------------------------------|------------|
|---------------------------------|-5----7--3--|
|-0-0-0---0-0-0---0-0-0---0-0-0---|-5----7--3--|
|-0-0-0---0-0-0---0-0-0---0-0-0---|-5----7--3--|


  Gtr I
       PM  PM  PM                         PM|         PM    PM|         PM
                        |-3-|
  Q  E E E E E E    E E E E E E  E  E E   E E E E E E E E   E E E E E E E E
|----------------|----------------------|-----------------|------------------|
|----------------|----------------------|-----------------|------------------|
|----------------|----------------------|-----------------|------------------|
|-0--------------|-10-8-7h8p7---10------|---------5-----7-|---------3-----5--|
|-0--5---7---8---|------------8----10-7-|-----5-8---5-----|-----3-7---3------|
|-0----0---0---0-|----------------------|-8-8---------8---|-7-7---------7----|
|
| Gtr II
|                                         PM----------------------------|
| W                 H         H           E E E E E E E E   E E E E E E E E
|----------------|----------------------|-----------------|------------------|
|----------------|----------------------|-----------------|------------------|
|----------------|----------------------|-----------------|------------------|
|-0--------------|--8---------7---------|-----------------|------------------|
|-0--------------|--8---------7---------|-8-8-8-8-8-8-8-8-|-7-7-7-7-7-7-7----|
|-0--------------|--8---------7---------|-8-8-8-8-8-8-8-8-|-7-7-7-7-7-7-7----|


  Gtrs I, II
  PM--|     PM  PM  PM--|    PM|   PM|
  S S S S E E E E E E   E  E E E E E E  E
|---------------------|-------------------|
|---------------------|-------------------|
|---------------------|-------------------|
|---------------------|-------------------|
|-0-0-0---5---7---8---|---10-----8-----10-|
|-0-0-0-----0---0---0-|-8----8-7---8-8----|


  PM--|     PM  PM  PM--|   PM|    PM~
  S S S S E E E E E E   E E E E  E E Q
|---------------------|-----------------|
|---------------------|-----------------|
|---------------------|-----------------|
|---------------------|-----------------|
|-0-0-0---5---7---8---|---8-----10---7--|
|-0-0-0-----0---0---0-|-5---5-7----7----|


  PM--|     PM  PM  PM--|    PM|   PM|
  S S S S E E E E E E   E  E E E E E E  E
|---------------------|-------------------|
|---------------------|-------------------|
|---------------------|-------------------|
|---------------------|-------------------|
|-0-0-0---5---7---8---|---10-----8-----10-|
|-0-0-0-----0---0---0-|-8----8-7---8-8----|


  PM--|           PM    PM--|           PM
  S S S S E E E E E E   S S S S E E E E E E
|---------------------|---------------------|
|---------------------|---------------------|
|---------------------|---------------------|
|-------------5-----7-|-------------3-----5-|
|---------5-8---5-----|---------3-7---3-----|
|-8-8-8-----------8---|-7-7-7-----------7---|


  Gtr I
  PM--|     PM  PM  PM--|    PM|   PM|
  S S S S E E E E E E   E  E E E E E E  E
|---------------------|-------------------|
|---------------------|-------------------|
|---------------------|-------------------|
|---------------------|-------------------|
|-0-0-0---5---7---8---|---10-----8-----10-|
|-0-0-0-----0---0---0-|-8----8-7---8-8----|
|
| Gtr II
| PM--|     PM  PM  PM--|    PM|   PM|
| S S S S E E E E E E   E  E E E E E E  E
|---------------------|-------------------|
|---------------------|-------------------|
|---------------------|-------------------|
|---------------------|----8-----7------8-|
|-0-0-0---5---7---8---|-------------------|
|-0-0-0-----0---0---0-|-8----8-7---8-8----|


  PM--|     PM  PM  PM--|   PM|    PM~
  S S S S E E E E E E   E E E E  E E Q
|---------------------|-----------------|
|---------------------|-----------------|
|---------------------|-----------------|
|---------------------|-----------------|
|-0-0-0---5---7---8---|---8-----10---7--|
|-0-0-0-----0---0---0-|-5---5-7----7----|
|
| PM--|     PM  PM  PM--|   PM|    PM~
| S S S S E E E E E E   E E E E  E E Q
|---------------------|-----------------|
|---------------------|-----------------|
|---------------------|-----------------|
|---------------------|---7------8---5--|
|-0-0-0---5---7---8---|-----------------|
|-0-0-0-----0---0---0-|-5---5-7----7----|


  PM--|     PM  PM  PM--|    PM|   PM|
  S S S S E E E E E E   E  E E E E E E  E
|---------------------|-------------------|
|---------------------|-------------------|
|---------------------|-------------------|
|---------------------|-------------------|
|-0-0-0---5---7---8---|---10-----8-----10-|
|-0-0-0-----0---0---0-|-8----8-7---8-8----|
|
| PM--|     PM  PM  PM--|    PM|   PM|
| S S S S E E E E E E   E  E E E E E E  E
|---------------------|-------------------|
|---------------------|-------------------|
|---------------------|-------------------|
|---------------------|----8-----7------8-|
|-0-0-0---5---7---8---|-------------------|
|-0-0-0-----0---0---0-|-8----8-7---8-8----|


  PM--|           PM    PM--|           PM
  S S S S E E E E E E   S S S S E E E E E E
|---------------------|---------------------|
|---------------------|---------------------|
|---------------------|---------------------|
|-------------5-----7-|-------------3-----5-|
|---------5-8---5-----|---------3-7---3-----|
|-8-8-8-----------8---|-7-7-7-----------7---|
|
| PM--|           PM    PM--|           PM
| S S S S E E E E E E   S S S S E E E E E E
|---------------------|---------------------|
|---------------------|---------------------|
|---------------------|---------------------|
|-------------5-----7-|-------------3-----5-|
|---------5-8---5-----|---------3-7---3-----|
|-8-8-8-----------8---|-7-7-7-----------7---|


  PM--|     PM  PM  PM
                             |-3-|
  S S S S E E E E E E    E E E E E E  E  E E
|---------------------|----------------------|
|---------------------|----------------------|
|---------------------|----------------------|
|---------------------|-10-8-7h8p7---10------|
|-0-0-0---5---7---8---|------------8----10-7-|
|-0-0-0-----0---0---0-|----------------------|
|
| PM--|     PM  PM  PM
| S S S S E E E E E E    H         H
|---------------------|----------------------|
|---------------------|----------------------|
|---------------------|----------------------|
|---------3---5---7---|--8---------7---------|
|-0-0-0---------------|--8---------7---------|
|-0-0-0-----0---0---0-|--8---------7---------|


  PM--|     PM  PM  PM
                                |-3-|
  S S S S E E E E E E   E E E E E E E E E
|---------------------|-------------------|
|---------------------|-------------------|
|---------------------|-------------------|
|---------------------|-8-7---------------|
|-0-0-0---5---7---8---|-----8-5-8p7h8-5-3-|
|-0-0-0-----0---0---0-|-------------------|
|
| PM--|     PM  PM  PM
| S S S S E E E E E E   H       H
|---------------------|-------------------|
|---------------------|-------------------|
|---------------------|-------------------|
|---------3---5---7---|-5-------7---------|
|-0-0-0---------------|-5-------7---------|
|-0-0-0-----0---0---0-|-5-------7---------|


  PM--|     PM  PM  PM
                             |-3-|
  S S S S E E E E E E    E E E E E E  E  E E
|---------------------|----------------------|
|---------------------|----------------------|
|---------------------|----------------------|
|---------------------|-10-8-7h8p7---10------|
|-0-0-0---5---7---8---|------------8----10-7-|
|-0-0-0-----0---0---0-|----------------------|
|
| PM--|     PM  PM  PM
| S S S S E E E E E E    H         H
|---------------------|----------------------|
|---------------------|----------------------|
|---------------------|----------------------|
|---------3---5---7---|--8---------7---------|
|-0-0-0---------------|--8---------7---------|
|-0-0-0-----0---0---0-|--8---------7---------|


  PM--|           PM    PM--|           PM
  S S S S E E E E E E   S S S S E E E E E E
|---------------------|-----------------------|
|---------------------|-----------------------|
|---------------------|-----------------------|
|-------------5-----7-|-------------3-----5---|
|-8-8-8---5-8---5-----|-7-7-7---3-7---3-------|
|-8-8-8-----------8---|-7-7-7-----------7-----|
|
| W                     W
|---------------------|-----------------------|
|---------------------|-----------------------|
|---------------------|-----------------------|
|-8-------------------|-7---------------------|
|-8-------------------|-7---------------------|
|-8-------------------|-7---------------------|


  PM--|     PM  PM  PM
                             |-3-|
  S S S S E E E E E E    E E E E E E  E  E E
|---------------------|----------------------|
|---------------------|----------------------|
|---------------------|----------------------|
|---------------------|-10-8-7h8p7---10------|
|-0-0-0---5---7---8---|------------8----10-7-|
|-0-0-0-----0---0---0-|----------------------|
|
| W                      H         H
|---------------------|----------------------|
|---------------------|----------------------|
|---------------------|----------------------|
|-0-------------------|--8---------7---------|
|-0-------------------|--8---------7---------|
|-0-------------------|--8---------7---------|


  PM--|     PM  PM  PM
                                |-3-|
  S S S S E E E E E E   E E E E E E E E E
|---------------------|-------------------|
|---------------------|-------------------|
|---------------------|-------------------|
|---------------------|-8-7---------------|
|-0-0-0---5---7---8---|-----8-5-8p7h8-5-3-|
|-0-0-0-----0---0---0-|-------------------|
|
| W                     H       H
|---------------------|-------------------|
|---------------------|-------------------|
|---------------------|-------------------|
|-0-------------------|-5-------7---------|
|-0-------------------|-5-------7---------|
|-0-------------------|-5-------7---------|


  PM--|     PM  PM  PM
                             |-3-|
  S S S S E E E E E E    E E E E E E  E  E E
|---------------------|----------------------|
|---------------------|----------------------|
|---------------------|----------------------|
|---------------------|-10-8-7h8p7---10------|
|-0-0-0---5---7---8---|------------8----10-7-|
|-0-0-0-----0---0---0-|----------------------|
|
| W                      H         H
|---------------------|----------------------|
|---------------------|----------------------|
|---------------------|----------------------|
|-0-------------------|--8---------7---------|
|-0-------------------|--8---------7---------|
|-0-------------------|--8---------7---------|


             PM               PM
  Q  E E E E E E   Q  E E E E E E
|----------------|-----------------|
|----------------|-----------------|
|----------------|-----------------|
|-8------5-----7-|-7------3-----5--|
|-8--5-8---5-----|-7--3-7---3------|
|-8----------8---|-7----------7----|
|
|                         PM----|
| W                H      E E E E
|----------------|-----------------|
|----------------|-----------------|
|----------------|-----------------|
|-8--------------|-7---------------|
|-8--------------|-7------7-7-7-7--|
|-8--------------|-7------7-7-7-7--|


    Q=176
      PM    PM--|   PM    PM  PM------|
    E E Q   S S S S E E   E E E E S S S S E  E
||----------------------|----------------------|
||o---------------------|----------------------|
||----------------------|----------------------|
||----------------------|----------------------|
||o---------0-0-0-------|---------0-0-0---3-/5-|
||--8-0-7\--0-0-0---0-3-|-0-5-0-0-0-0-0--------|
|
|     PM    PM--|   PM    PM  PM------|
|   E E Q   S S S S E E   E E E E S S S S E  E
||----------------------|----------------------|
||o---------------------|----------------------|
||----------------------|----------------------|
||----------------------|-----------------2-/3-|
||o---------0-0-0-------|---------0-0-0--------|
||--8-0-7\--0-0-0---0-3-|-0-5-0-0-0-0-0--------|


    PM    PM--|   PM    PM  PM------|
  E E Q   S S S S E E   E E E E S S S S E  E
|---------------------|----------------------|
|---------------------|----------------------|
|---------------------|----------------------|
|---------------------|----------------------|
|---------0-0-0-----3-|---5-----0-0-0---8-\7-|
|-8-0-7\--0-0-0---0---|-0---0-0-0-0-0--------|
|
|   PM    PM--|   PM    PM  PM------|
| E E Q   S S S S E E   E E E E S S S S E  E
|---------------------|----------------------|
|---------------------|----------------------|
|---------------------|----------------------|
|---------------------|-----------------7-\5-|
|---------0-0-0-----3-|---5-----0-0-0--------|
|-8-0-7\--0-0-0---0---|-0---0-0-0-0-0--------|


  Q=180
  E E E E E E E E    E  E E E E E E E   E E E E E E E E    E  E E E E E E E
|-----------------|-------------------|-----------------|--------------------||
|-----------------|-------------------|-----------------|-------------------o||
|-----------------|-------------------|-----------------|--------------------||
|-7-0-3-0-0-0-0-7-|--0--8-0-5-7-0-3-0-|-7-0-3-0-0-0-0-7-|--0--8-0-0-7-5------||
|-----------------|-------------------|-----------------|---------------7-4-o||
|-----------------|-------------------|-----------------|--------------------||
|
| Q   Q   E E E E   +E  E Q   E E Q     Q   Q   E E E E   +E  E Q   E E Q
|-----------------|-------------------|-----------------|--------------------||
|-----------------|-------------------|-----------------|-------------------o||
|-----------------|-------------------|-----------------|--------------------||
|-8---8---8-8-8-5-|-(5)-5-5---5-5-5---|-8---8---8-8-8-5-|-(5)-5-5---5-5-5----||
|-8---8---8-8-8-5-|-(5)-5-5---5-5-5---|-8---8---8-8-8-5-|-(5)-5-5---5-5-5---o||
|-8---8---8-8-8-5-|-(5)-5-5---5-5-5---|-8---8---8-8-8-5-|-(5)-5-5---5-5-5----||


  Q=184
  PM--|     PM  PM  PM
                             |-3-|
  S S S S E E E E E E    E E E E E E  E  E E
|---------------------|----------------------|
|---------------------|----------------------|
|---------------------|----------------------|
|---------------------|-10-8-7h8p7---10------|
|-0-0-0---5---7---8---|------------8----10-7-|
|-0-0-0-----0---0---0-|----------------------|
|
| PM--|     PM  PM  PM
| S S S S E E E E E E    H         H
|---------------------|----------------------|
|---------------------|----------------------|
|---------------------|----------------------|
|---------3---5---7---|--8---------7---------|
|-0-0-0---------------|--8---------7---------|
|-0-0-0-----0---0---0-|--8---------7---------|


  PM--|     PM  PM  PM
                                |-3-|
  S S S S E E E E E E   E E E E E E E E E
|---------------------|-------------------|
|---------------------|-------------------|
|---------------------|-------------------|
|---------------------|-8-7---------------|
|-0-0-0---5---7---8---|-----8-5-8p7h8-5-3-|
|-0-0-0-----0---0---0-|-------------------|
|
| PM--|     PM  PM  PM
| S S S S E E E E E E   H       H
|---------------------|-------------------|
|---------------------|-------------------|
|---------------------|-------------------|
|---------3---5---7---|-5-------7---------|
|-0-0-0---------------|-5-------7---------|
|-0-0-0-----0---0---0-|-5-------7---------|


  PM--|     PM  PM  PM
                             |-3-|
  S S S S E E E E E E    E E E E E E  E  E E
|---------------------|----------------------|
|---------------------|----------------------|
|---------------------|----------------------|
|---------------------|-10-8-7h8p7---10------|
|-0-0-0---5---7---8---|------------8----10-7-|
|-0-0-0-----0---0---0-|----------------------|
|
| PM--|     PM  PM  PM
| S S S S E E E E E E    H         H
|---------------------|----------------------|
|---------------------|----------------------|
|---------------------|----------------------|
|---------3---5---7---|--8---------7---------|
|-0-0-0---------------|--8---------7---------|
|-0-0-0-----0---0---0-|--8---------7---------|


  PM--|           PM    PM--|           PM
  S S S S E E E E E E   S S S S E E E E E E
|---------------------|-----------------------|
|---------------------|-----------------------|
|---------------------|-----------------------|
|-------------5-----7-|-------------3-----5---|
|-8-8-8---5-8---5-----|-7-7-7---3-7---3-------|
|-8-8-8-----------8---|-7-7-7-----------7-----|
|
| W                     W
|---------------------|-----------------------|
|---------------------|-----------------------|
|---------------------|-----------------------|
|-8-------------------|-7---------------------|
|-8-------------------|-7---------------------|
|-8-------------------|-7---------------------|


  Gtr I
  PM--|     PM  PM  PM--|    PM|   PM|
  S S S S E E E E E E   E  E E E E E E  E
|---------------------|-------------------|
|---------------------|-------------------|
|---------------------|-------------------|
|---------------------|-------------------|
|-0-0-0---5---7---8---|---10-----8-----10-|
|-0-0-0-----0---0---0-|-8----8-7---8-8----|
|
| Gtr II
| PM--|     PM  PM  PM--|    PM|   PM|
| S S S S E E E E E E   E  E E E E E E  E
|---------------------|-------------------|
|---------------------|-------------------|
|---------------------|-------------------|
|---------3---5---7---|----8-----7------8-|
|-0-0-0---------------|-------------------|
|-0-0-0-----0---0---0-|-8----8-7---8-8----|


  PM--|     PM  PM  PM--|   PM|    PM~
  S S S S E E E E E E   E E E E  E E Q
|---------------------|-----------------|
|---------------------|-----------------|
|---------------------|-----------------|
|---------------------|-----------------|
|-0-0-0---5---7---8---|---8-----10---7--|
|-0-0-0-----0---0---0-|-5---5-7----7----|
|
| PM--|     PM  PM  PM--|   PM|    PM~
| S S S S E E E E E E   E E E E  E E Q
|---------------------|-----------------|
|---------------------|-----------------|
|---------------------|-----------------|
|---------3---5---7---|---7------8---5--|
|-0-0-0---------------|-----------------|
|-0-0-0-----0---0---0-|-5---5-7----7----|


  PM--|     PM  PM  PM--|    PM|   PM|      PM|         PM    PM|
  S S S S E E E E E E   E  E E E E E E  E   E E E E E E E E   E E E E E E E E
|---------------------|-------------------|-----------------|-----------------|
|---------------------|-------------------|-----------------|-----------------|
|---------------------|-------------------|-----------------|-----------------|
|---------------------|-------------------|---------5-----7-|---------3-------|
|-0-0-0---5---7---8---|---10-----8-----10-|-----5-8---5-----|-----3-7---7-3-0-|
|-0-0-0-----0---0---0-|-8----8-7---8-8----|-8-8---------8---|-7-7-------------|
|
| PM--|     PM  PM  PM--|    PM|   PM|      PM|         PM    PM|
| S S S S E E E E E E   E  E E E E E E  E   E E E E E E E E   E E E E E E E E
|---------------------|-------------------|-----------------|-----------------|
|---------------------|-------------------|-----------------|-----------------|
|---------------------|-------------------|---------3-----5-|---------2-------|
|---------3---5---7---|----8-----7------8-|-----3-7---3-----|-----2-5---5-2---|
|-0-0-0---------------|-------------------|-5-5---------5---|-3-3-----------3-|
|-0-0-0-----0---0---0-|-8----8-7---8-8----|-----------------|-----------------|
|
| Gtr III
| W                     W                   E E E E E E E E   E E E E E E E E
|---------------------|-------------------|-----------------|-----------------|
|---------------------|-------------------|-----------------|-----------------|
|---------------------|-------------------|-----------------|-----------------|
|---------------------|-------------------|-----------------|-----------------|
|---------------------|-------------------|-5-5-5-5-5-5-5-5-|-3-3-3-3-3-3-3-3-|
|---------------------|-------------------|-8-8-8-8-8-8-8-8-|-7-7-7-7-7-7-7-7-|


  Q=176
    PM    PM--|   PM    PM  PM------|
  E E Q   S S S S E E   E E E E S S S S E  E
|---------------------|----------------------|
|---------------------|----------------------|
|---------------------|----------------------|
|---------------------|----------------------|
|---------0-0-0-------|---------0-0-0---3-/5-|
|-8-0-7\--0-0-0---0-3-|-0-5-0-0-0-0-0--------|
|
|   PM    PM--|   PM    PM  PM------|
| E E Q   S S S S E E   E E E E S S S S E  E
|---------------------|----------------------|
|---------------------|----------------------|
|---------------------|----------------------|
|---------------------|-----------------2-/3-|
|---------0-0-0-------|---------0-0-0--------|
|-8-0-7\--0-0-0---0-3-|-0-5-0-0-0-0-0--------|


    PM    PM--|   PM    PM  PM------|
  E E Q   S S S S E E   E E E E S S S S E  E
|---------------------|-----------------------|
|---------------------|-----------------------|
|---------------------|-----------------------|
|---------------------|-----------------------|
|---------0-0-0-----3-|---5-----0-0-0---8-\7--|
|-8-0-7\--0-0-0---0---|-0---0-0-0-0-0---------|
|
|   PM    PM--|   PM    PM  PM------|
| E E Q   S S S S E E   E E E E S S S S E  E
|---------------------|-----------------------|
|---------------------|-----------------------|
|---------------------|-----------------------|
|---------------------|-----------------7-\5--|
|---------0-0-0-----3-|---5-----0-0-0---------|
|-8-0-7\--0-0-0---0---|-0---0-0-0-0-0---------|


  Q=180
  E E E E E E E E    E  E E E E E E E   E E E E E E E E    E  E E E E E E E
|-----------------|-------------------|-----------------|-------------------|
|-----------------|-------------------|-----------------|-------------------|
|-----------------|-------------------|-----------------|-------------------|
|-7-0-3-0-0-0-0-7-|--0--8-0-5-7-0-3-0-|-7-0-3-0-0-0-0-7-|--0--8-0-0-7-5-----|
|-----------------|-------------------|-----------------|---------------7-4-|
|-----------------|-------------------|-----------------|-------------------|
|
| Q   Q   E E E E   +E  E Q   E E Q     Q   Q   E E E E   +E  E Q   E E Q
|-----------------|-------------------|-----------------|-------------------|
|-----------------|-------------------|-----------------|-------------------|
|-----------------|-------------------|-----------------|-------------------|
|-8---8---8-8-8-5-|-(5)-5-5---5-5-5---|-8---8---8-8-8-5-|-(5)-5-5---5-5-5---|
|-8---8---8-8-8-5-|-(5)-5-5---5-5-5---|-8---8---8-8-8-5-|-(5)-5-5---5-5-5---|
|-8---8---8-8-8-5-|-(5)-5-5---5-5-5---|-8---8---8-8-8-5-|-(5)-5-5---5-5-5---|


  Q=176
     PM     PM--|   PM    PM  PM------|
   E E  Q   S S S S E E   E E E E S S S S E  E
|-----------------------|----------------------|
|-----------------------|----------------------|
|-----------------------|----------------------|
|-----------------------|----------------------|
|-----------0-0-0-------|---------0-0-0---3-/5-|
|-12-0-10\--0-0-0---0-7-|-0-8-0-0-0-0-0--------|
|
|    PM     PM--|   PM    PM  PM------|
|  E E  Q   S S S S E E   E E E E S S S S E  E
|-----------------------|----------------------|
|-----------------------|----------------------|
|-----------------------|----------------------|
|-----------------------|-----------------2-/3-|
|-----------0-0-0-------|---------0-0-0--------|
|-12-0-10\--0-0-0---0-7-|-0-8-0-0-0-0-0--------|


     PM     PM--|   PM    PM  PM------|
   E E  Q   S S S S E E   E E E E S S S S E  E
|-----------------------|-----------------------|
|-----------------------|-----------------------|
|-----------------------|-----------------------|
|-----------------------|-----------------------|
|-----------0-0-0-----7-|---8-----0-0-0---8-\7--|
|-12-0-10\--0-0-0---0---|-0---0-0-0-0-0---------|
|
|    PM     PM--|   PM    PM  PM------|
|  E E  Q   S S S S E E   E E E E S S S S E  E
|-----------------------|-----------------------|
|-----------------------|-----------------------|
|-----------------------|-----------------------|
|-----------------------|-----------------7-\5--|
|-----------0-0-0-----7-|---8-----0-0-0---------|
|-12-0-10\--0-0-0---0---|-0---0-0-0-0-0---------|


    Q=180
    E E E E E E E E    E  E E E E E E E
||------------------|-------------------|
||o-----------------|-------------------|
||------------------|-------------------|
||--7-0-3-0-0-0-0-7-|--0--8-0-5-7-0-3-0-|
||o-----------------|-------------------|
||------------------|-------------------|
|
|   Q   Q   E E E E   +E  E Q   E E Q
||------------------|-------------------|
||o-----------------|-------------------|
||------------------|-------------------|
||--8---8---8-8-8-5-|-(5)-5-5---5-5-5---|
||o-8---8---8-8-8-5-|-(5)-5-5---5-5-5---|
||--8---8---8-8-8-5-|-(5)-5-5---5-5-5---|


  E E E E E E E E    E  E E E E E E E
|-----------------|---------------------||
|-----------------|--------------------o||
|-----------------|---------------------||
|-7-0-3-0-0-0-0-7-|--0--8-0-0-7-5-------||
|-----------------|---------------7-4--o||
|-----------------|---------------------||
|
| Q   Q   E E E E   +E  E Q   E E Q
|-----------------|---------------------||
|-----------------|--------------------o||
|-----------------|---------------------||
|-8---8---8-8-8-5-|-(5)-5-5---5-5-5-----||
|-8---8---8-8-8-5-|-(5)-5-5---5-5-5----o||
|-8---8---8-8-8-5-|-(5)-5-5---5-5-5-----||


    Gtrs I, II
        PM    PM----|   PM      PM    PM------|   PM--|
     E  E  E  E S S S S E  E    E  E  E E S S S S S S S S  4x
||----------------------------|----------------------------||
||o---------------------------|---------------------------o||
||----------------------------|----------------------------||
||---0-----0---------------0--|----0-----------------------||
||o-(5)---(5)---0-0-0-----(5)-|---(5)-----0-0-0---0-0-0---o||
||---0--0--0--0-0-0-0---0--0--|-0--0--0-0-0-0-0---0-0-0----||


    Gtr I
     E  E  E  E Q       E  E    E  E  E E E  E       E   E    3x
||----------------------------|-------------------------------||
||o---------------------------|------------------------------o||
||----------------------------|-------------------------------||
||---7--0--3--0-3s======5--5--|-0--8--0-0-5-/7-------0h==3----||
||o---------------------------|------------------------------o||
||----------------------------|-------------------------------||
|
|   Gtr III
|       PM    PM----|   PM      PM    PM---------|   PM--|
|    E  E  E  E S S S S E  E    E  E  E   E  S S S S S S S S  3x
||----------------------------|-------------------------------||
||o---------------------------|------------------------------o||
||----------------------------|-------------------------------||
||---0-----0---------------0--|----0--------------------------||
||o-(5)---(5)---0-0-0-----(5)-|---(5)--------0-0-0---0-0-0---o||
||---0--0--0--0-0-0-0---0--0--|-0--0--0---0--0-0-0---0-0-0----||


   E  E  E  E Q       E  E    E  E  E E E   E   E   E
|---------------------------|---------------------------|
|---------------------------|---------------------------|
|---------------------------|---------------------------|
|--7--0--3--0-3s======5--5--|-0--8--0-0-7---5-----------|
|---------------------------|-------------------7---4---|
|---------------------------|---------------------------|
|
|     PM    PM----|   PM      PM    PM------|   PM--|
|  E  E  E  E S S S S E  E    E  E  E E S S S S S S S S
|---------------------------|---------------------------|
|---------------------------|---------------------------|
|---------------------------|---------------------------|
|--0-----0---------------0--|----0----------------------|
|-(5)---(5)---0-0-0-----(5)-|---(5)-----0-0-0---0-0-0---|
|--0--0--0--0-0-0-0---0--0--|-0--0--0-0-0-0-0---0-0-0---|


     E  E  E  E Q       E  E    E  E  E E E  E       E   E    3x
||----------------------------|-------------------------------||
||o---------------------------|------------------------------o||
||----------------------------|-------------------------------||
||---7--0--3--0-3s======5--5--|-0--8--0-0-5-/7-------0h==3----||
||o---------------------------|------------------------------o||
||----------------------------|-------------------------------||
|
|    E  E  H.                   H         E  E       E E      3x
||----------------------------|-------------------------------||
||o---------------------------|------------------------------o||
||---2s=5---------------------|-----------2s=5----------------||
||----------------------------|----------------------0h5------||
||o---------------------------|------------------------------o||
||----------------------------|-------------------------------||
|
|       PM    PM----|   PM      PM    PM---------|   PM--|
|    E  E  E  E S S S S E  E    E  E  E   E  S S S S S S S S  3x
||----------------------------|-------------------------------||
||o---------------------------|------------------------------o||
||----------------------------|-------------------------------||
||---0-----0---------------0--|----0--------------------------||
||o-(5)---(5)---0-0-0-----(5)-|---(5)--------0-0-0---0-0-0---o||
||---0--0--0--0-0-0-0---0--0--|-0--0--0---0--0-0-0---0-0-0----||


   E  E  E  E Q       E  E    E  E  E E E   E   E   E     W
|---------------------------|---------------------------|------*|
|---------------------------|---------------------------|------*|
|---------------------------|---------------------------|------*|
|--7--0--3--0-3s======5--5--|-0--8--0-0-7---5-----------|------*|
|---------------------------|-------------------7---4---|------*|
|---------------------------|---------------------------|------*|
|
|  E  E  H.                   H         E   E   E   E     W
|---------------------------|---------------------------|------*|
|---------------------------|---------------------------|------*|
|--2s=5---------------------|-----------2s==5-----------|------*|
|---------------------------|-------------------0h==5---|------*|
|---------------------------|---------------------------|------*|
|---------------------------|---------------------------|------*|
|
|     PM    PM----|   PM      PM    PM------|   PM--|
|  E  E  E  E S S S S E  E    E  E  E E S S S S S S S S   W
|---------------------------|---------------------------|------*|
|---------------------------|---------------------------|------*|
|---------------------------|---------------------------|------*|
|--0-----0---------------0--|----0----------------------|------*|
|-(5)---(5)---0-0-0-----(5)-|---(5)-----0-0-0---0-0-0---|------*|
|--0--0--0--0-0-0-0---0--0--|-0--0--0-0-0-0-0---0-0-0---|------*|




--------------------------------------------------------------------------------


Duration Legend
---------------
W - whole; H - half; Q - quarter; E - 8th; S - 16th; T - 32nd; X - 64th; a - acciaccatura
+ - note tied to previous; . - note dotted; .. - note double dotted
Uncapitalized letters represent notes that are staccato (1/2 duration)
Irregular groupings are notated above the duration line
Duration letters will always appear directly above the note/fret number it represents the
duration for.  Duration letters with no fret number below them represent rests.  Multi-
bar rests are notated in the form Wxn, where n is the number of bars to rest for.  Low
melody durations appear below the staff

Tablature Legend
----------------
 h   - hammer-on
 p   - pull-off
 b   - bend
 pb  - pre-bend
 r   - bend release (if no number after the r, then release immediately)
 /\  - slide into or out of (from/to "nowhere")
 s   - legato slide
 S   - shift slide
 - natural harmonic
[n]  - artificial harmonic
n(n) - tapped harmonic
 ~   - vibrato
 tr  - trill
 T   - tap
 TP  - trem. picking
 PM  - palm muting
\n/  - tremolo bar dip; n = amount to dip
 \n  - tremolo bar down
 n/  - tremolo bar up
/n\  - tremolo bar inverted dip
 =   - hold bend; also acts as connecting device for hammers/pulls
 <> - volume swell (louder/softer)
 x   - on rhythm slash represents muted slash
 o   - on rhythm slash represents single note slash

Misc Legend
-----------
 |  - bar
||  - double bar
||o - repeat start
o|| - repeat end
*|  - double bar (ending)
 :  - bar (freetime)
 $  - Segno
 &  - Coda
Tempo markers -  = BPM(8/16=s8/s16), where s8 = swing 8ths, s16 = swing 16ths



--------------------------------------------------------------------------------

** Generated using Power Tab Editor by Brad Larsen: The Official Power Tab Web Site
comments
We did not receive enough feedback on this tab! Please rate:
print report bad tab
1 2 3 4 5
I want to post or [tab]
guest
You may want to rate the tab now too:
select rating
Please do not post tabs as comments. Select "correction" instead!