Oops, an error
Loading. Please wait.

Bananna Stickers Guitar Pro

2,824 views 1 this week
6 commentsread comments
1 2 3 4 5
accurate
x 5
Autoscroll
+/-
esc
set tempo
stop
Contributor
Filesize
Instruments
14 Kb
lead guitar, percussion, other
WARNING: You are trying to view
                                    content from Ultimate-Guitar.com
                                    in an unauthorized application,
                                    which is prohibited.

                                    Please use an official Ultimate
                                    Guitar Tabs application for iPhone,
                                    iPad or Android to access legitimate
                                    chords, guitar, bass, and drum tabs
                                    from Ultimate-Guitar.com database.

                                    Type "ultimate guitar tabs" in Apple
                                    App Store's or Android Market's
                                    search to find the application.
This tab has been removed at the request of the publisher
Wherever possible, Ultimate Guitar will try to work with the publisher to restore the tab to the site.
comments
report bad tab
6 comments total. Showing first comments.
+2 reply
Mr_CiNiC wrote on October 25 2007, 09:09 am

I am not at home and can't see this right now, but I am absolutely dying to see this one. Me and my friend tabbed out a bit of this ourselves, and I'm eager to see if you've got it down. One of the best songs they have.

+1 reply
Mr_CiNiC wrote on October 25 2007, 09:16 am

By the way, if anyone else decides to tab this out, it's called Inner Child Tied and Beaten in My Trunk. Not Banana Stickers. Just saying.

+1 reply
Mr_CiNiC wrote on October 25 2007, 06:12 pm

Auh, c'mon man, get the solo right. It was an alright job, but still, you messed up a bit. There was a music box, but the guitar played the tune to.
"|------------------------------------------------------------------|
|-------------------------------------------------------------------|
|--9----------------12--11----------------9--8----------------11--9-|
|-------------------------------------------------------------------|
|--7----------------10--9-----------------7--6----------------9---7|
|------000--000-------------000--000----------000--000-------------|

|------------------------------------------------------------------|
|------------------------------------------------------------------|
|------------------------------------------------------------------|
|----------------8--9----------------------------------------------|
|----------------6--7----------------------------------------------|
|000---000---------------------------------------------------------|

Thats one part... open notes are palm muted...repeat once...second time dont do last two chords..." - Credit to post by endlessfight1

And get the solo on there. Yeah, there's no chance I'll ever be able to do it probably for about a month, but still.

I want to post or [tab]
guest
You may want to rate the tab now too:
select rating
Please do not post tabs as comments. Select "correction" instead!