Oops, an error
Loading. Please wait.

Branding Of The Gear Tab

2,887 views 1 this week
10 commentsread comments
1 2 3 4 5
accurate
x 4
add to favorites launch autoscroll
font size
0
reset
Autoscroll
+/-
esc
set tempo
stop
Contributor
Difficulty
Tuning
intermediate
C F A# D# G C
WARNING: You are trying to view
                                    content from Ultimate-Guitar.com
                                    in an unauthorized application,
                                    which is prohibited.

                                    Please use an official Ultimate
                                    Guitar Tabs application for iPhone,
                                    iPad or Android to access legitimate
                                    chords, guitar, bass, and drum tabs
                                    from Ultimate-Guitar.com database.

                                    Type "ultimate guitar tabs" in Apple
                                    App Store's or Android Market's
                                    search to find the application.
This tab has been removed at the request of the publisher
Wherever possible, Ultimate Guitar will try to work with the publisher to restore the tab to the site.
10 comments total. Showing first comments.
0 reply
mrpanda423 wrote on July 17 2008, 03:00 pm

|-------------------------------------------------------------------|
|-------------------------------------------------------------------|
|-------------------------------------------------------------------|
|-------------------------------------------------------------------|
|--------------7p6--------------3---------------3-2---------------2-|
|000000000000------555555555555----333333333333------222222222222---|
............ ............ ............ ............

0 reply
mrpanda423 wrote on July 17 2008, 03:01 pm

^ that should be the opening riff (my bad)

0 reply
mrpanda423 wrote on July 17 2008, 03:05 pm

this should be the verse
|-----------------------------------------------------------|
|-----------------------------------------------------------|
|-----------------------------------------------------------|
|------5-4-----------7-5-----------5-4----------------------|
|----------7-6-----------9-7-----------7-6----------3---2---|
|0-0------------0-0-----------0-0-----------000-000---0-----|
. . . . . . ... ... .

everything else is perfect, id give you 4.5 stars,

I want to post or [tab]
guest
You may want to rate the tab now too:
select rating
Please do not post tabs as comments. Select "correction" instead!