Oops, an error
Loading. Please wait.

Clouds Over California Tab

ver6
ver6

Intro

Solo

More versions @911Tabs.com
315 views 3 this week
1 commentread comment
1 2 3 4 5
please rate
Autoscroll
+/-
esc
set tempo
stop
Contributor
Difficulty
Tuning
intermediate
D A D G B E
Hey! There's an official Ultimate Guitar app which is ideal
for learning songs when you're away from computer. Get the app
WARNING: You are trying to view
                                    content from Ultimate-Guitar.com
                                    in an unauthorized application,
                                    which is prohibited.

                                    Please use an official Ultimate
                                    Guitar Tabs application for iPhone,
                                    iPad or Android to access legitimate
                                    chords, guitar, bass, and drum tabs
                                    from Ultimate-Guitar.com database.

                                    Type "ultimate guitar tabs" in Apple
                                    App Store's or Android Market's
                                    search to find the application.
Artist: Devildriver
Song: Clouds over California
Album: The last kind words
Year: 2007

Tuning: D A D G B E

Intro:
Guitar 1:
e|-----------------------------------------------------------|
B|-----------------------------------------------------------|
G|-----------------------------------------------------------|
D|-----------------------------------------------------------|
A|-----------------------------------------------------------|
E|-12/3-x-x-x-x-x-x-x-x-x-x-x-x-x-x-x-x-12/3-x-x-x-x-x-x-x-x-|

Guitar 2:
e|-------------------|
B|-------------------|
G|-------------------|
D|-----5-------7---3-|
A|-----5-------7---3-|
E|-3---3---5---5---1-|

Guitar 1:
e|-----------------------------------------------------------|
B|-----------------------------------------------------------|
G|-----------------------------------------------------------|
D|-----------------------------------------------------------|
A|-----------------------------------------------------------|
E|-12/3-x-x-x-x-x-x-x-x-x-x-x-x-x-x-x-x-12/3-x-x-x-x-x-x-x-x-|

Guitar 2:
e|-------------------|
B|-------------------|
G|-------------------|
D|-----5-------7---3-|
A|-----5-------7---3-|
E|-3---3---5---5---1-|

Cool melody after intro, let notes ring, play with delay
and treble:
e|----------------------------12-12----------------------|
B|-12-12-------------------15-------15-------12-12-------|
G|-------11-11-------11-11-------------11-11-------11-11-|
D|-------------12-12-------------------------------------|
A|-------------------------------------------------------|
E|-------------------------------------------------------|

e|----------------12-12-------------12-12----------------|
B|-------------15-------15-------15-------15-------12-12-|
G|-------11-11-------------11-11-------------11-11-------|
D|-12-12-------------------------------------------------|
A|-------------------------------------------------------|
E|-------------------------------------------------------|

e|-------------------------------------------------------|
B|-------------------12-12-------------------12-12-------|
G|-11-11-------11-11-------11-11-------11-11-------11-11-|
D|-------12-12-------------------12-12-------------------|
A|-------------------------------------------------------|
E|-------------------------------------------------------|

e|--------------------------12:-------------------------|
B|-----------------15:--------------7b------------------|
G|-------11-11----------------------9b------------------|
D|-12-12----------------------------8b------------------|
A|------------------------------------------------------|
E|------------------------------------------------------|

Pre - verse:
e|---------------------------------------------------|
B|---------------------------------------------------|
G|---------------------------------------------------|
D|-0-0-----------------------------------------------|
A|-0-0---3---5---5\8---5---7---7\12---7---10---10\15-|
E|-0-0-0---0---0-----0---0---0------0---0----0-------|

e|--------------------------------------------------------|
B|--------------------------------------------------------|
G|--------------------------------------------------------|
D|--------7-9--------5-5-0-0------------------------------|
A|--------7-9--------5-5-0-0---3---5---5\8---5---7---7\12-|
E|-5-5--5-5-7-3-3--3-3-3-0-0-0---0---0-----0---0---0------|

e|----------------------------------------------------------|
B|----------------------------------------------------------|
G|----------------------------------------------------------|
D|-------------------------7-7--------5-5-0-0---------------|
A|---7---10---10\15--------7-7--------5-5-0-0---3---5---5\8-|
E|-0---0----0-------5-5--5-5-5-3-3--3-3-3-0-0-0---0---0-----|

e|-------------------------------------------------------|
B|-------------------------------------------------------|
G|-------------------------------------------------------|
D|----------------------------------------7-9--------5-5-|
A|---5---7---7\12---7---10---10\15--------7-9--------5-5-|
E|-0---0---0------0---0----0-------5-5--5-5-7-3-3--3-3-3-|

e|------------------------------------------------------|
B|------------------------------------------------------|
G|------------------------------------------------------|
D|-0-0---3---5---5\8---5---7---7\12---7---10---10\15----|
A|-0-0--------------------------------------------------|
E|-0-0-0---0---0-----0---0---0------0---0----0----------|

Verse:
e|---------------------------------------------------|
B|---------------------------------------------------|
G|---------------------------------------------------|
D|-0-0-----------------------------------------------|
A|-0-0---3---5---5\8---5---7---7\12---7---10---10\15-|
E|-0-0-0---0---0-----0---0---0------0---0----0-------|

e|--------------------------------------------------------|
B|--------------------------------------------------------|
G|--------------------------------------------------------|
D|--------7-9--------5-5-0-0------------------------------|
A|--------7-9--------5-5-0-0---3---5---5\8---5---7---7\12-|
E|-5-5--5-5-7-3-3--3-3-3-0-0-0---0---0-----0---0---0------|

e|----------------------------------------------------------|
B|----------------------------------------------------------|
G|----------------------------------------------------------|
D|-------------------------7-7--------5-5-0-0---------------|
A|---7---10---10\15--------7-7--------5-5-0-0---3---5---5\8-|
E|-0---0----0-------5-5--5-5-5-3-3--3-3-3-0-0-0---0---0-----|

e|-------------------------------------------------------|
B|-------------------------------------------------------|
G|-------------------------------------------------------|
D|----------------------------------------7-9--------5-5-|
A|---5---7---7\12---7---10---10\15--------7-9--------5-5-|
E|-0---0---0------0---0----0-------5-5--5-5-7-3-3--3-3-3-|

e|------------------------------------------------------|
B|------------------------------------------------------|
G|------------------------------------------------------|
D|-0-0---3---5---5\8---5---7---7\12---7---10---10\15----|
A|-0-0--------------------------------------------------|
E|-0-0-0---0---0-----0---0---0------0---0----0----------|

Pre - chorus:
e|------------------------------------------------------|
B|------------------------------------------------------|
G|------------------------------------------------------|
D|-0-0--------------------------------------------------|
A|-0-0---12---10---10/7---10---7---7/5---5---3---3/1----|
E|-0-0-0----0----0------0----0---0-----0---0---0--------|

Chorus:
Guitar 1, let notes ring, play with delay
and treble:
e|----------------------------12-12----------------------|
B|-12-12-------------------15-------15-------12-12-------|
G|-------11-11-------11-11-------------11-11-------11-11-|
D|-------------12-12-------------------------------------|
A|-------------------------------------------------------|
E|-------------------------------------------------------|

e|----------------12-12-------------12-12----------------|
B|-------------15-------15-------15-------15-------12-12-|
G|-------11-11-------------11-11-------------11-11-------|
D|-12-12-------------------------------------------------|
A|-------------------------------------------------------|
E|-------------------------------------------------------|

e|-------------------------------------------------------|
B|-------------------12-12-------------------12-12-------|
G|-11-11-------11-11-------11-11-------11-11-------11-11-|
D|-------12-12-------------------12-12-------------------|
A|-------------------------------------------------------|
E|-------------------------------------------------------|

e|--------------------------12:-------------------------|
B|-----------------15:--------------7b------------------|
G|-------11-11----------------------9b------------------|
D|-12-12----------------------------8b------------------|
A|------------------------------------------------------|
E|------------------------------------------------------|

Guitar 2:
e|------------------------------------------------------|
B|------------------------------------------------------|
G|------------------------------------------------------|
D|------------------------------------------------------|
A|----------7----------5----------7---------------------|
E|-3-0-0--0---3-0-0--0---3-0-0--0---7-7--7--7-5-5--5--5-|

e|------------------------------------------------------|
B|------------------------------------------------------|
G|------------------------------------------------------|
D|------------------------------------------------------|
A|----------7----------5----------7---------------------|
E|-3-0-0--0---3-0-0--0---3-0-0--0---7-7--7--7-5-5--5--5-|

e|------------------------------------------------------|
B|------------------------------------------------------|
G|------------------------------------------------------|
D|------------------------------------------------------|
A|----------7----------5----------7---------------------|
E|-3-0-0--0---3-0-0--0---3-0-0--0---7-7--7--7-5-5--5--5-|

Verse:
e|---------------------------------------------------|
B|---------------------------------------------------|
G|---------------------------------------------------|
D|-0-0-----------------------------------------------|
A|-0-0---3---5---5\8---5---7---7\12---7---10---10\15-|
E|-0-0-0---0---0-----0---0---0------0---0----0-------|

e|--------------------------------------------------------|
B|--------------------------------------------------------|
G|--------------------------------------------------------|
D|--------7-9--------5-5-0-0------------------------------|
A|--------7-9--------5-5-0-0---3---5---5\8---5---7---7\12-|
E|-5-5--5-5-7-3-3--3-3-3-0-0-0---0---0-----0---0---0------|

e|----------------------------------------------------------|
B|----------------------------------------------------------|
G|----------------------------------------------------------|
D|-------------------------7-7--------5-5-0-0---------------|
A|---7---10---10\15--------7-7--------5-5-0-0---3---5---5\8-|
E|-0---0----0-------5-5--5-5-5-3-3--3-3-3-0-0-0---0---0-----|

e|-------------------------------------------------------|
B|-------------------------------------------------------|
G|-------------------------------------------------------|
D|----------------------------------------7-9--------5-5-|
A|---5---7---7\12---7---10---10\15--------7-9--------5-5-|
E|-0---0---0------0---0----0-------5-5--5-5-7-3-3--3-3-3-|

e|------------------------------------------------------|
B|------------------------------------------------------|
G|------------------------------------------------------|
D|-0-0---3---5---5\8---5---7---7\12---7---10---10\15----|
A|-0-0--------------------------------------------------|
E|-0-0-0---0---0-----0---0---0------0---0----0----------|

Pre - chorus:
e|------------------------------------------------------|
B|------------------------------------------------------|
G|------------------------------------------------------|
D|-0-0--------------------------------------------------|
A|-0-0---12---10---10/7---10---7---7/5---5---3---3/1----|
E|-0-0-0----0----0------0----0---0-----0---0---0--------|

Chorus:
Guitar 1, let notes ring, play with delay
and treble:
e|----------------------------12-12----------------------|
B|-12-12-------------------15-------15-------12-12-------|
G|-------11-11-------11-11-------------11-11-------11-11-|
D|-------------12-12-------------------------------------|
A|-------------------------------------------------------|
E|-------------------------------------------------------|

e|----------------12-12-------------12-12----------------|
B|-------------15-------15-------15-------15-------12-12-|
G|-------11-11-------------11-11-------------11-11-------|
D|-12-12-------------------------------------------------|
A|-------------------------------------------------------|
E|-------------------------------------------------------|

e|-------------------------------------------------------------------|
B|-------------------12-12-------------------12-12-------------------|
G|-11-11-------11-11-------11-11-------11-11-------11-11-------11-11-|
D|-------12-12-------------------12-12-------------------12-12-------|
A|-------------------------------------------------------------------|
E|-------------------------------------------------------------------|

e|----------------------------12-12----------------------|
B|-12-12-------------------15-------15-------12-12-------|
G|-------11-11-------11-11-------------11-11-------11-11-|
D|-------------12-12-------------------------------------|
A|-------------------------------------------------------|
E|-------------------------------------------------------|

e|----------------12-12-------------12-12----------------|
B|-------------15-------15-------15-------15-------12-12-|
G|-------11-11-------------11-11-------------11-11-------|
D|-12-12-------------------------------------------------|
A|-------------------------------------------------------|
E|-------------------------------------------------------|

e|-------------------------------------------------------|
B|-------------------12-12-------------------12-12-------|
G|-11-11-------11-11-------11-11-------11-11-------11-11-|
D|-------12-12-------------------12-12-------------------|
A|-------------------------------------------------------|
E|-------------------------------------------------------|

e|--------------------------12:-------------------------|
B|-----------------15:--------------7b------------------|
G|-------11-11----------------------9b------------------|
D|-12-12----------------------------8b------------------|
A|------------------------------------------------------|
E|------------------------------------------------------|

Guitar 2:
e|------------------------------------------------------|
B|------------------------------------------------------|
G|------------------------------------------------------|
D|------------------------------------------------------|
A|----------7----------5----------7---------------------|
E|-3-0-0--0---3-0-0--0---3-0-0--0---7-7--7--7-5-5--5--5-|

e|------------------------------------------------------|
B|------------------------------------------------------|
G|------------------------------------------------------|
D|------------------------------------------------------|
A|----------7----------5----------7---------------------|
E|-3-0-0--0---3-0-0--0---3-0-0--0---7-7--7--7-5-5--5--5-|

e|------------------------------------------------------|
B|------------------------------------------------------|
G|------------------------------------------------------|
D|------------------------------------------------------|
A|----------7----------5----------7---------------------|
E|-3-0-0--0---3-0-0--0---3-0-0--0---7-7--7--7-5-5--5--5-|

e|------------------------------------------------------|
B|------------------------------------------------------|
G|------------------------------------------------------|
D|------------------------------------------------------|
A|----------7----------5----------7---------------------|
E|-3-0-0--0---3-0-0--0---3-0-0--0---7-7--7--7-5-5--5--5-|

e|------------------------------------------------------|
B|------------------------------------------------------|
G|------------------------------------------------------|
D|------------------------------------------------------|
A|----------7----------5----------7---------------------|
E|-3-0-0--0---3-0-0--0---3-0-0--0---7-7--7--7-5-5--5--5-|

e|------------------------------------------------------|
B|------------------------------------------------------|
G|------------------------------------------------------|
D|------------------------------------------------------|
A|----------7----------5----------7---------------------|
E|-3-0-0--0---3-0-0--0---3-0-0--0---7-7--7--7-5-5--5--5-|

Interlude:
e|-------------------------------------|
B|-------------------------------------|
G|-------------------------------------|
D|-------------------------------------|
A|-------------------------------------|
E|-0-0--0-0-0--0-0-0--0-0-0--0-0-0-0-0-|
         .      .      .      . 

e|--------------------------------------------------|
B|--------------------------------------------------|
G|--------------------------------------------------|
D|--------------------------------------------------|
A|----------5--------7-5-3----------5--------10-8-7-|
E|-3-0-0--0---0-0--0-------3-0-0--0---0-0--0--------|

e|--------------------------------------------------|
B|--------------------------------------------------|
G|--------------------------------------------------|
D|--------------------------------------------------|
A|----------5--------7-5-3----------5--------10-8-7-|
E|-3-0-0--0---0-0--0-------3-0-0--0---0-0--0--------|

e|--------------------------------------------------|
B|--------------------------------------------------|
G|--------------------------------------------------|
D|--------------------------------------------------|
A|----------5--------7-5-3----------5--------10-8-7-|
E|-3-0-0--0---0-0--0-------3-0-0--0---0-0--0--------|

e|--------------------------------------------------|
B|--------------------------------------------------|
G|--------------------------------------------------|
D|--------------------------------------------------|
A|----------5--------7-5-3----------5--------10-8-7-|
E|-3-0-0--0---0-0--0-------3-0-0--0---0-0--0--------|

Solo:
e|-8b---10b---12b---14b------------------------------|
B|------------------------------18h16h15-17-15-14-13-|
G|------------------------14-15----------------------|
D|---------------------------------------------------|
A|---------------------------------------------------|
E|---------------------------------------------------|
 
                                         T        T
e|-18h16h15-17-15-14-13-----------------15h16h18-15h16h18-|
B|----------------------------15h16h18b-------------------|
G|----------------------10-11-----------------------------|
D|--------------------------------------------------------|
A|--------------------------------------------------------|
E|--------------------------------------------------------|

   T         T        T        T        T        T   
e|-15h16h18-15h16h18-17h18h20-17h18h20-17h18h20-17h18h20-|
B|-------------------------------------------------------|
G|-------------------------------------------------------|
D|-------------------------------------------------------|
A|-------------------------------------------------------|
E|-------------------------------------------------------|

   T         T       T         T        T       T
e|-13h14h16-13h14h16-13h14h16-13h14h16-10h11h13-10h11h13-|
B|-------------------------------------------------------|
G|-------------------------------------------------------|
D|-------------------------------------------------------|
A|-------------------------------------------------------|
E|-------------------------------------------------------|

   T         T        T      T      T      T
e|-10h11h13-10h11h13-8h9h11-8h9h11-8h9h11-8h9h11-8b-----|
B|------------------------------------------------------|
G|------------------------------------------------------|
D|------------------------------------------------------|
A|------------------------------------------------------|
E|------------------------------------------------------|

Solo backing:
e|- ---------------------------------------------------|
B|-----------------------------------------------------|
G|-----------------------------------------------------|
D|-----------------------------------------------------|
A|--------5-3------------5-3------------5-3------------|
E|-0-0--0-----5-3-0-0--0-----5-3-0-0--0-----5-3-0-0--0-|

e|------------------------------------------------------|
B|------------------------------------------------------|
G|------------------------------------------------------|
D|------------------------------------------------------|
A|-5-3------------5-3------------5-3------------5-3-----|
E|-----5-3-0--0-0-----7-5-0--0-0-----5-3-0-0--0-----5-3-|

e|----------------------------------------------|
B|----------------------------------------------|
G|----------------------------------------------|
D|----------------------------------------------|
A|--------5-3------------5-3------------5-3-----|
E|-0-0--0-----5-3-0-0--0-----5-3-0--0-0-----7-5-|

Pre - chorus:
e|------------------------------------------------------|
B|------------------------------------------------------|
G|------------------------------------------------------|
D|-0-0--------------------------------------------------|
A|-0-0---12---10---10/7---10---7---7/5---5---3---3/1----|
E|-0-0-0----0----0------0----0---0-----0---0---0--------|

Chorus:
Chorus:
Guitar 1, let notes ring, play with delay
and treble:
e|----------------------------12-12----------------------|
B|-12-12-------------------15-------15-------12-12-------|
G|-------11-11-------11-11-------------11-11-------11-11-|
D|-------------12-12-------------------------------------|
A|-------------------------------------------------------|
E|-------------------------------------------------------|

e|----------------12-12-------------12-12----------------|
B|-------------15-------15-------15-------15-------12-12-|
G|-------11-11-------------11-11-------------11-11-------|
D|-12-12-------------------------------------------------|
A|-------------------------------------------------------|
E|-------------------------------------------------------|

e|-------------------------------------------------------------------|
B|-------------------12-12-------------------12-12-------------------|
G|-11-11-------11-11-------11-11-------11-11-------11-11-------11-11-|
D|-------12-12-------------------12-12-------------------12-12-------|
A|-------------------------------------------------------------------|
E|-------------------------------------------------------------------|

e|----------------------------12-12----------------------|
B|-12-12-------------------15-------15-------12-12-------|
G|-------11-11-------11-11-------------11-11-------11-11-|
D|-------------12-12-------------------------------------|
A|-------------------------------------------------------|
E|-------------------------------------------------------|

e|----------------12-12-------------12-12----------------|
B|-------------15-------15-------15-------15-------12-12-|
G|-------11-11-------------11-11-------------11-11-------|
D|-12-12-------------------------------------------------|
A|-------------------------------------------------------|
E|-------------------------------------------------------|

e|-------------------------------------------------------|
B|-------------------12-12-------------------12-12-------|
G|-11-11-------11-11-------11-11-------11-11-------11-11-|
D|-------12-12-------------------12-12-------------------|
A|-------------------------------------------------------|
E|-------------------------------------------------------|

e|--------------------------12:-------------------------|
B|-----------------15:--------------7b------------------|
G|-------11-11----------------------9b------------------|
D|-12-12----------------------------8b------------------|
A|------------------------------------------------------|
E|------------------------------------------------------|

Guitar 2:
e|------------------------------------------------------|
B|------------------------------------------------------|
G|------------------------------------------------------|
D|------------------------------------------------------|
A|----------7----------5----------7---------------------|
E|-3-0-0--0---3-0-0--0---3-0-0--0---7-7--7--7-5-5--5--5-|

e|------------------------------------------------------|
B|------------------------------------------------------|
G|------------------------------------------------------|
D|------------------------------------------------------|
A|----------7----------5----------7---------------------|
E|-3-0-0--0---3-0-0--0---3-0-0--0---7-7--7--7-5-5--5--5-|

e|------------------------------------------------------|
B|------------------------------------------------------|
G|------------------------------------------------------|
D|------------------------------------------------------|
A|----------7----------5----------7---------------------|
E|-3-0-0--0---3-0-0--0---3-0-0--0---7-7--7--7-5-5--5--5-|

e|------------------------------------------------------|
B|------------------------------------------------------|
G|------------------------------------------------------|
D|------------------------------------------------------|
A|----------7----------5----------7---------------------|
E|-3-0-0--0---3-0-0--0---3-0-0--0---7-7--7--7-5-5--5--5-|

e|------------------------------------------------------|
B|------------------------------------------------------|
G|------------------------------------------------------|
D|------------------------------------------------------|
A|----------7----------5----------7---------------------|
E|-3-0-0--0---3-0-0--0---3-0-0--0---7-7--7--7-5-5--5--5-|

e|------------------------------------------------------|
B|------------------------------------------------------|
G|------------------------------------------------------|
D|------------------------------------------------------|
A|----------7----------5----------7---------------------|
E|-3-0-0--0---3-0-0--0---3-0-0--0---7-7--7--7-5-5--5--5-|

Outro:
e|--------------------------------------------------------------|
B|--------------------------------------------------------------|
G|--------------------------------------------------------------|
D|--------------------------------------------------------------|
A|----------5----------7----------8-----------------------------|
E|-3-0-0--0---3-0-0--0---3-0-0--0---7-7--7-7-7--7-5-5--5-5-5--5-|

e|--------------------------------------------------------------|
B|--------------------------------------------------------------|
G|--------------------------------------------------------------|
D|--------------------------------------------------------------|
A|----------5----------7----------8-----------------------------|
E|-3-0-0--0---3-0-0--0---3-0-0--0---7-7--7-7-7--7-5-5--5-5-5--5-|

e|--------------------------------------------------------------|
B|--------------------------------------------------------------|
G|--------------------------------------------------------------|
D|--------------------------------------------------------------|
A|----------5----------7----------8-----------------------------|
E|-3-0-0--0---3-0-0--0---3-0-0--0---7-7--7-7-7--7-5-5--5-5-5--5-|

e|--------------------------------------------------------------|
B|--------------------------------------------------------------|
G|--------------------------------------------------------------|
D|--------------------------------------------------------------|
A|----------5----------7----------8-----------------------------|
E|-3-0-0--0---3-0-0--0---3-0-0--0---7-7--7-7-7--7-5-5--5-5-5--5-|

e|--------------------------------------------------------------|
B|--------------------------------------------------------------|
G|--------------------------------------------------------------|
D|--------------------------------------------------------------|
A|----------5----------7----------8-----------------------------|
E|-3-0-0--0---3-0-0--0---3-0-0--0---7-7--7-7-7--7-5-5--5-5-5--5-|

e|--------------------------------------------------------------|
B|--------------------------------------------------------------|
G|--------------------------------------------------------------|
D|--------------------------------------------------------------|
A|----------5----------7----------8-----------------------------|
E|-3-0-0--0---3-0-0--0---3-0-0--0---7-7--7-7-7--7-5-5--5-5-5--5-|

e|--------------------------------------------------------------|
B|--------------------------------------------------------------|
G|--------------------------------------------------------------|
D|--------------------------------------------------------------|
A|----------5----------7----------8-----------------------------|
E|-3-0-0--0---3-0-0--0---3-0-0--0---7-7--7-7-7--7-5-5--5-5-5--5-|

e|--------------------------------------------------------------|
B|--------------------------------------------------------------|
G|--------------------------------------------------------------|
D|--------------------------------------------------------------|
A|----------5----------7----------8-----------------------------|
E|-3-0-0--0---3-0-0--0---3-0-0--0---7-7--7-7-7--7-5-5--5-5-5--5-|

e|--------------------------------------------------------------|
B|--------------------------------------------------------------|
G|--------------------------------------------------------------|
D|--------------------------------------------------------------|
A|----------5----------7----------8-----------------------------|
E|-3-0-0--0---3-0-0--0---3-0-0--0---7-7--7-7-7--7-5-5--5-5-5--5-|

e|--------------------------------------------------------------|
B|--------------------------------------------------------------|
G|--------------------------------------------------------------|
D|--------------------------------------------------------------|
A|----------5----------7----------8-----------------------------|
E|-3-0-0--0---3-0-0--0---3-0-0--0---7-7--7-7-7--7-5-5--5-5-5--5-|


FADE - OUT!



Used Tab Symbols
_____________________
 h  = Hammer On
 b  = Bend Up
 /  = Slide Down
 \  = Slide Up
 T  = Right Hand Tap
 :  = Let Ring
 . = palm mute
 x = dead note
_____________________
comments
We did not receive enough feedback on this tab! Please rate:
print report bad tab
1 2 3 4 5
1 comment total.
0 reply
jakeeleebro wrote on January 29 2013, 02:31 am

turns out that the intro is


e|--------------------------------------------------------|
B|--------------------------------------------------------|
G|--------------------------------------------------------|
D|------------------------------------------5-------3-----|
A|----------------------------------------5-------3-------|
E|-12s3-x-x-x-x-x-x-x-x-x-x-x-x-x-x-x-x-5-----5-3-----3-1-|

I want to post or [tab]
guest
You may want to rate the tab now too:
select rating
Please do not post tabs as comments. Select "correction" instead!