Oops, an error
Loading. Please wait.

Canada Tab

1,619 views 9 this week
2 commentsread comments
1 2 3 4 5
excellent!
x 3
Autoscroll
+/-
esc
set tempo
stop
Contributor
Hey! There's an official Ultimate Guitar app which is ideal
for learning songs when you're away from computer. Get the app
WARNING: You are trying to view
                                    content from Ultimate-Guitar.com
                                    in an unauthorized application,
                                    which is prohibited.

                                    Please use an official Ultimate
                                    Guitar Tabs application for iPhone,
                                    iPad or Android to access legitimate
                                    chords, guitar, bass, and drum tabs
                                    from Ultimate-Guitar.com database.

                                    Type "ultimate guitar tabs" in Apple
                                    App Store's or Android Market's
                                    search to find the application.
Canada - Devin Townsend

Use plenty of reverb

Guitar I: Light Distortion, Reverb (C G C G C E)
Guitar II: Light Distortion, Reverb (C G C G C E)

Intro (0:00):
Guitar I
E|-------------------------------------------------|
C|-------------------------------------------------|
G|-------------------------------------------------|
C|-------------------------------------------------|
G|----------5h7-------5----5-------5--5\3----3-5---|
C|0-----5h7-------------5h7-----5----------5-------|

E|-------------------------------------------------|
C|-------------------------------------------------|
G|------------------------------------------3\2----|
C|-------------------------------------------------|
G|---5------5h7---7-5------5-------5--5\3---3\2----|
C|0-----5h7------------5h7-----5----------5--------|

E|-------------------------------------------------|
C|-------------------------------------------------|
G|--------------------------------------------3-5--|
C|-------------------------------------------------|
G|---5------5h7---7h8p7-----5------5--5\3-----3-5--|
C|0-----5h7-------------5h7-----5----------5-------|

E|-------------------------------------------------|
C|-------------------------------------------------|
G|--------------------------------------------2----|
C|-------------------------------------------------|
G|---5------5h7---7h8p7-----5------5--5\3-----2----|
C|0-----5h7-------------5h7-----5----------5-------|


Verse (0:26):
Guitar I
E|-------------------------------------------------| x6
C|-------------------------------------------------|
G|-------------------------------------------------|
C|--------------------7----------------------------|
G|--5-----5-5--55---------5-----5-5-55-------------|
C|0---5h7---------5h7-------5h7---------5h7-2------|

Guitar II					     -
E|-------------------------------------------------|  |
C|-------------------------------------------------|  |
G|-5--5-5-5--5-5-5---5--5-5-5--5-5-5---------------|  |
C|-------------------------------------------------|  |
G|-5--5-5-5--5-5-5---5--5-5-5--5-5-5---------------|  |
C|-------------------------------------------------|  |
						      | - - - Starting 3rd time, play 2x
E|-------------------------------------------------|  |
C|-------------------------------------------------|  |
G|-7--7-7-7--7-7-7---7--7-7-7--7-7-7---------------|  |
C|-------------------------------------------------|  |
G|-7--7-7-7--7-7-7---7--7-7-7--7-7-7---------------|  |
C|-------------------------------------------------|  |
						     -
Chorus (1:05):
E|-------------------------------------------------|
C|-------------------------------------------------|
G|-10---10-10-10---10-10-10---12--12--10--10-10-10-|
C|-9----9--9--9----9--9--9----9---9---9---9--9--9--|
G|-10---10-10-10---10-10-10---10--10--10--10-10-10-|
C|-------------------------------------------------|

E|-------------------------------------------------|
C|-------------------------------------------------|
G|-10---10-10-10---10-10-10---12--12--10--10-10-10-|
C|-8----8--8--8----8--8--8----8---8---8---8--8--8--|
G|-10---10-10-10---10-10-10---10--10--10--10-10-10-|
C|-------------------------------------------------|

E|-------------------------------------------------|
C|-------------------------------------------------|
G|-5---5-5-5---5-5-5---5---5-5-5---5-5-5-----------|
C|-4---4-4-4---4-4-4---4---4-4-4---4-4-4-----------|
G|-5---5-5-5---5-5-5---5---5-5-5---5-5-5-----------|
C|-------------------------------------------------|

E|-------------------------------------------------|
C|-------------------------------------------------|
G|-7---7-7-7---7-7-7---7---7-7-7---7-7-7-----------|
C|-6---6-6-6---6-6-6---6---6-6-6---6-6-6-----------|
G|-7---7-7-7---7-7-7---7---7-7-7---7-7-7-----------|
C|-------------------------------------------------|

E|-------------------------------------------------|
C|-------------------------------------------------|
G|-2---2-2-2---2-2-2---2---2-2-2---2-2-2-----------|
C|-0---0-0-0---0-0-0---0---0-0-0---0-0-0-----------|
G|-2---2-2-2---2-2-2---2---2-2-2---2-2-2-----------|
C|-------------------------------------------------|

Guitar I
E|-------------------------------------------------|
C|-------------------------------------------------|
G|-------------------------------------------------|
C|--------------------7----------------------------|
G|--5-----5-5--55---------5-----5------------------|
C|0---5h7---------5h7-------5h7---0----------------|

Guitar II
E|-------------------------------------------------|
C|-------------------------------------------------|
G|-5--5-5-5--5-5-5---5--5-5-5--5-5-5---------------|
C|-------------------------------------------------|
G|-5--5-5-5--5-5-5---5--5-5-5--5-5-5---------------|
C|-------------------------------------------------|

Verse (1:44):
Guitar I					    -
E|-------------------------------------------------| |
C|-------------------------------------------------| |
G|-------------------------------------------------| |
C|-------------------------------------------------| |
G|----------5h7---7-5------5-------5--5\3---3-5----| |
C|0-----5h7------------5h7-----5----------5--------| |
						     |
Guitar II					     |
E|-------------------------------------------------| |
C|-------------------------------------------------| |
G|----------5h7---7-5------5-------5--5\3---3-5----| |
C|0-----5h7------------5h7-----5----------5--------| |
G|-------------------------------------------------| |
C|-------------------------------------------------| |
						     |
Guitar I					     | - - - Play 2x
E|-------------------------------------------------| |
C|-------------------------------------------------| |
G|-------------------------------------------------| |
C|-------------------------------------------------| |
G|---5------5h7---7-5------5-------5--5\3---3\2----| |
C|0-----5h7------------5h7-----5----------5--------| |
						     |
Guitar II					     |
E|-------------------------------------------------| |
C|-------------------------------------------------| |
G|---5------5h7---7-5------5-------5--5\3---3\2----| |
C|0-----5h7------------5h7-----5----------5--------| |
G|-------------------------------------------------| |
C|-------------------------------------------------| |
						    -

Bridge (2:10):
E|-------------------------------------------------|
C|-------------------------------------------------|
G|-------------------------------------------------|
C|-------------------------------------------------|
G|-------------------------------------------------|
C|0------0-0-0-0-0-0-0-0---------------------------|
	 . . . . . . . . 
E|-------------------------------------------------|
C|-------------------------------------------------|
G|-------------------------------------------------|
C|-------------------------------------------------|
G|-------------------------------------------------|
C|3-3-3-3-4-4-4-4-3-3-3-3-4-4-4-4-6-6-6-6-6-6-6-6--|
  . . . . . . . . . . . . . . . . . . . . . . . .
E|-------------------------------------------------|
C|-------------------------------------------------|
G|-------------------------------------------------|
C|-------------------------------------------------|
G|-------------------------------------------------|
C|7-7-7-7-5-5-5-5-5-2-2-2-3-3-3-3-2-2-2-2-3-3-3-3--|
  . . . . . . . . . . . . . . . . . . . . . . . .
E|---------------------------------------------------------------|
C|---------------------------------------------------------------|
G|---------------------------------------------------------------|
C|---------------------------------------------------------------|
G|---------------------------------------------------------------|
C|10-10-10-10-7-7-7-7-7-7-7-7-13-13-13-13-8-8-8-8-4-4-4-4-4-4-4-4|
  . . . . . . . . . . . . . . . . . . . . . . . . . . . . . . . .
E|-------------------------------------------------------------------------|
C|-------------------------------------------------------------------------|
G|-------------------------------------------------------------------------|
C|-----------------------------4-3---2---1---0-----------------------------|
G|-----------------------4-3-2-----4---3---2---1-5-4-3-2-1-0---------------|
C|4-4-4-4-4-4-4-4-0--3-2-------------------------------------6-5-4-3-2-1-0-|
  . . . . . . . .    . . . . . . . . . . . . . . . . . . . . . . . . . . .

After Bridge (2:36):				    -
E|-------------------------------------------------| |
C|-------------------------------------------------| |
G|-------------------------------------------------| |
C|6--6--6--6-6---10--10--10--10-10-----------------| |
G|6--6--6--6-6---10--10--10--10-10-----------------| |
C|6--6--6--6-6---10--10--10--10-10-----------------| |
						     |
E|-------------------------------------------------| |
C|-------------------------------------------------| |
G|-------------------------------------------------| |
C|6--6--6--6-6---10--10--12-12-12-12-13-13-13-13-13| |
G|6--6--6--6-6---10--10--12-12-12-12-13-13-13-13-13| |
C|6--6--6--6-6---10--10--12-12-12-12-13-13-13-13-13| |
						     | - - - Play 2x
E|-------------------------------------------------| |
C|-------------------------------------------------| |
G|-------------------------------------------------| |
C|6--6--6--6-6---10--10--10--10-10-----------------| |
G|6--6--6--6-6---10--10--10--10-10-----------------| |
C|6--6--6--6-6---10--10--10--10-10-----------------| |
						     |
E|-------------------------------------------------| |
C|-------------------------------------------------| |
G|-------------------------------------------------| |
C|6--6--6--6-6---3--3--3--3-3----------------------| |
G|6--6--6--6-6---3--3--3--3-3----------------------| |
C|6--6--6--6-6---3--3--3--3-3----------------------| |
						    -

Pre-Verse (3:28):
E|-----------| x8
C|-----------|
G|-----------|
C|10-10-10-10|
G|10-10-10-10|
C|10-10-10-10|

E|-------| x8
C|-------|
G|-------|
C|7-7-7-7|
G|7-7-7-7|
C|7-7-7-7|


Verse (3:54):
Guitar I
E|-------------------------------------------------| x4
C|-------------------------------------------------|
G|-------------------------------------------------|
C|--------------------7----------------------------|
G|--5-----5-5--55---------5-----5-5-55-------------|
C|0---5h7---------5h7-------5h7---------5h7-2------|

Guitar II					     
E|-------------------------------------------------| After 2x
C|-------------------------------------------------|
G|-5--5-5-5--5-5-5---5--5-5-5--5-5-5---------------|
C|-------------------------------------------------|
G|-5--5-5-5--5-5-5---5--5-5-5--5-5-5---------------|
C|-------------------------------------------------|

Guitar I
E|-------------------------------------------------| 
C|-------------------------------------------------|
G|-------------------------------------------------|
C|--------------------7----------------------------|
G|------------------------5-----5-5-55-------------|
C|----------------5h7-------5h7---------5h7-2------|

Guitar II
E|-------------------------------------------------|
C|-------------------------------------------------|
G|----------5--5-5-5--5-5--------------------------|
C|-4--5--7-----------------------------------------|
G|-4--5--7--5--5-5-5--5-5--------------------------|
C|-4--5--7-----------------------------------------|

Guitar I
E|-------------------------------------------------|
C|-------------------------------------------------|
G|-------------------------------------------------|
C|--------------------7----------------------------|
G|--5-----5-5--55---------5-----5-5-55-------------|
C|0---5h7---------5h7-------5h7---------5h7-2------|

Guitar II					     
E|-------------------------------------------------|
C|-------------------------------------------------|
G|-5--5-5-5--5-5-5---5--5-5-5--5-5-5---------------|
C|-------------------------------------------------|
G|-5--5-5-5--5-5-5---5--5-5-5--5-5-5---------------|
C|-------------------------------------------------|


Chorus (4:33):
E|-------------------------------------------------|
C|-------------------------------------------------|
G|-10---10-10-10---10-10-10---12--12--10--10-10-10-|
C|-9----9--9--9----9--9--9----9---9---9---9--9--9--|
G|-10---10-10-10---10-10-10---10--10--10--10-10-10-|
C|-------------------------------------------------|

E|-------------------------------------------------|
C|-------------------------------------------------|
G|-10---10-10-10---10-10-10---12--12--10--10-10-10-|
C|-8----8--8--8----8--8--8----8---8---8---8--8--8--|
G|-10---10-10-10---10-10-10---10--10--10--10-10-10-|
C|-------------------------------------------------|

E|-------------------------------------------------|
C|-------------------------------------------------|
G|-5---5-5-5---5-5-5---5---5-5-5---5-5-5-----------|
C|-4---4-4-4---4-4-4---4---4-4-4---4-4-4-----------|
G|-5---5-5-5---5-5-5---5---5-5-5---5-5-5-----------|
C|-------------------------------------------------|

E|-------------------------------------------------|
C|-------------------------------------------------|
G|-7---7-7-7---7-7-7---7---7-7-7---7-7-7-----------|
C|-6---6-6-6---6-6-6---6---6-6-6---6-6-6-----------|
G|-7---7-7-7---7-7-7---7---7-7-7---7-7-7-----------|
C|-------------------------------------------------|

E|-------------------------------------------------|
C|-------------------------------------------------|
G|-2---2-2-2---2-2-2---2---2-2-2---2-2-2-----------|
C|-0---0-0-0---0-0-0---0---0-0-0---0-0-0-----------|
G|-2---2-2-2---2-2-2---2---2-2-2---2-2-2-----------|
C|-------------------------------------------------|

E|-------------------------------------------------|
C|-------------------------------------------------|
G|-7---7-7-7---7-7-7---7---7-7-7---7-7-7-----------|
C|-6---6-6-6---6-6-6---6---6-6-6---6-6-6-----------|
G|-7---7-7-7---7-7-7---7---7-7-7---7-7-7-----------|
C|-------------------------------------------------|

E|-------------------------------------------------|
C|-------------------------------------------------|
G|-2---2-2-2---2-2-2---2---------------------------|
C|-0---0-0-0---0-0-0---0---------------------------|
G|-2---2-2-2---2-2-2---2---------------------------|
C|-------------------------------------------------|


Outro (5:18):
Guitar I
E|-------------------------------------------------| Repeat until end
C|-------------------------------------------------|
G|-------------------------------------------------|
C|-------------------------------------------------|
G|-------5\7------------5\7------------------------|
C|0--------------0---------------------------------|

Guitar II
E|-------------------------------------------------| Repeat until end
C|-------------------------------------------------|
G|-------5\7------------5\7------------------------|
C|0--------------0---------------------------------|
G|-------------------------------------------------|
C|-------------------------------------------------|

Note: There another guitar part played in the outro (that seems to be tapping) 
that has not been tabbed
comments
We did not receive enough feedback on this tab! Please rate:
print report bad tab
1 2 3 4 5
2 comments total.
0 reply
lolwat356 wrote on December 19 2011, 08:06 pm

Great tab man! Thanks!

0 reply
Muntificator wrote on December 7 2013, 04:51 am

Man, nice job with this one. Loving this song even more now =P thanks!

I want to post or [tab]
guest
You may want to rate the tab now too:
select rating
Please do not post tabs as comments. Select "correction" instead!