Oops, an error
Loading. Please wait.

Ziltoid The Omniscient Tab

9,968 views 39 this week
5 commentsread comments
1 2 3 4 5
worth learning
x 10
add to favorites launch autoscroll
font size
0
reset
Autoscroll
+/-
esc
set tempo
stop
Contributor
Tabbers playing skills
intermediate ++
WARNING: You are trying to view
                                    content from Ultimate-Guitar.com
                                    in an unauthorized application,
                                    which is prohibited.

                                    Please use an official Ultimate
                                    Guitar Tabs application for iPhone,
                                    iPad or Android to access legitimate
                                    chords, guitar, bass, and drum tabs
                                    from Ultimate-Guitar.com database.

                                    Type "ultimate guitar tabs" in Apple
                                    App Store's or Android Market's
                                    search to find the application.
DEVIN TOWNSEND - ZILTOID THE OMNISCIENT

Tuning : Open C Major

How to tune from standard:
1 leave high e alone
2 tune B string up 1 semitone (1 fret)so that the 4th fret on the B sounds like the open 1st
3 leave G string alone
4 tune D string 1 tone (2 frets) down so that the 7th fret sounds like the open 3rd string
5 tune A string 1 tone (2 frets) down so that the 5th fret is the same as the open 4th
6 tune E string 2 tones (4 frets) down so the 7th fret sounds like the open 5th

Also Devin says he uses 10-52\'s for this tuning, but if people have a light touch 9-46s 
do fine


1  ZTO

Use Distortion throughout

Section A

E|--------------------------------------------------------|
C|--------------------------------------------------------|
G|--------------------------------------------------------|
C|-------------7----7----------------8---8---7---7----8-7-|
G|-------------5----5----------------6---6---5---5----6-5-|
C|-0--0-0-0-0------------0--0-0-0-0----0---0---0---0------|

E|-------------------------------------------------------------------------|
C|-------------------------------------------------------------------------|
G|-------------------------------------------------------------------------|
C|-------------------------------------------------------------------------|
G|-----------------------------------5-5-5-5-------------3-3-3-3-----------|
C|-0---2-2-2-2---3-3-3-3---2-2-2-2-------------2-2-2-2-------------2-2-2-2-|

PLAY THIS TWICE

Section B

E|----------------------------------|
C|----------------------------------|
G|----------------------------------|
C|----------------------------------|
G|--------------2-3-5---3--2h3h2----|
C|-3---3-3-3-3--------------------5-|

E|----------------------------------------|
C|----------------------------------------|
G|----------------------------------------|
C|------------------------2-2-2-2-2-2-2-2-|
G|--------------2-3-5---3-----------------|
C|-3---3-3-3-3----------------------------|

E|----------------------------------|
C|----------------------------------|
G|----------------------------------|
C|----------------------------------|
G|--------------2-3-5---3--2h3h2----|
C|-3---3-3-3-3--------------------5-|

E|----------------------------------------|
C|----------------------------------------|
G|----------------------------------------|
C|------------------------2-2-2-2-2-2-2-2-|
G|--------------2-3-5---3-----------------|
C|-0-0-0-0-0-0----------------------------|

E|----------------------------------|
C|----------------------------------|
G|----------------------------------|
C|----------------------------------|
G|--------------2-3-5---3--2h3h2----|
C|-3---3-3-3-3--------------------5-|

E|----------------------------------------|
C|----------------------------------------|
G|----------------------------------------|
C|------------------------2-2-2-2-2-2-2-2-|
G|--------------2-3-5---3-----------------|
C|-3---3-3-3-3----------------------------|

E|----------------------------------|
C|----------------------------------|
G|----------------------------------|
C|----------------------------------|
G|--------------2-3-5---3--2h3h2----|
C|-3---3-3-3-3--------------------5-|

E|------------------------------------|
C|------------------------------------|
G|------------------------------------|
C|------------------------------------|
G|--------------2-3-5-5-5-5-5-5-5-5-5-|
C|-3-3-3-3-3-3------------------------|


Back to Section A

E|--------------------------------------------------------|
C|--------------------------------------------------------|
G|--------------------------------------------------------|
C|-------------7----7----------------8---8---7---7----8-7-|
G|-------------5----5----------------6---6---5---5----6-5-|
C|-0--0-0-0-0------------0--0-0-0-0----0---0---0---0------|

E|-------------------------------------------------------------------------|
C|-------------------------------------------------------------------------|
G|-------------------------------------------------------------------------|
C|-------------------------------------------------------------------------|
G|-----------------------------------5-5-5-5-------------3-3-3-3-----------|
C|-0---2-2-2-2---3-3-3-3---2-2-2-2-------------2-2-2-2-------------2-2-2-2-|


2 By Your Command

Intro

E|------------------------------------------------------------------------------|
C|------------------------------------------------------------------------------|
G|------------------------------------------------------------------------------|
C|----------5--5-5-5----------5--5-5-5----------6--6-6-6-8--8-8-8--13--13-13-13-|
G|-3--3-3-3-3--3-3-3-3--3-3-3-3--3-3-3-4--4-4-4-4--4-4-4-6--6-6-6--11--11-11-11-|
C|-3--3-3-3----------3--3-3-3----------4--4-4-4---------------------------------|

E|-------------------------------------------|
C|-------------------------------------------|
G|-------------------------------------------|
C|----------5--5-5-5----------5--5-5-5--7----|
G|-3--3-3-3-3--3-3-3-3--3-3-3-3--3-3-3--5----|
C|-3--3-3-3----------3--3-3-3----------------|

Verse

E|------------------------------------|
C|------------------------------------|
G|------------------------------------|
C|------------------------------------| X4
G|-5-5-5-6--0-0-0--0--0-0-0--0--0-0-0-|
C|-5-5-5-6--0-0-0--0--0-0-0--0--0-0-0-|


E|---------------------------------------------------------------------------------------------|
C|---------------------------------------------------------------------------------------------|
G|---------------------------------------------------------------------------------------------|

X4
G|-5-5-5-6-----------5-----------8-----------5-----------8-----------4-----------8-----------3-|
C|-5-5-5-6-0-0-0-0-0---0-0-0-0-0---0-0-0-0-0---0-0-0-0-0---0-0-0-0-0---0-0-0-0-0---0-0-0-0-0---|

E|------------------------------------|
C|------------------------------------|
G|------------------------------------|
C|------------------------------------| X4
G|-5-5-5-6--0-0-0--0--0-0-0--0--0-0-0-|
C|-5-5-5-6--0-0-0--0--0-0-0--0--0-0-0-|


E|-------------------------------|
C|-------------------------------|
G|-------------------------------|
C|-------------------------------|
G|-----------------1br-----------|
C|-5br-3-2-0-2-3-5-----4-2-1-2-4-|

E|-----------------------------------------------------------------------------------|
C|-----------------------------------------------------------------------------------|
G|-----------------------------------------------------------------------------------|
C|-----------------------------------------------------------------------------------|
G|-9--9--9--7-12--9---9---12-11-7--12-11-7-7-7-9--9--9--7-12--9---9---12-11-7--7-7---|
C|-----------------------------------------------------------------------------------|

E|---------------------------------------|
C|---------------------------------------|
G|---------------------------------------|
C|---------------------------------------|
G|-3-3-3-6-6-6-3-3-3-6-6-6-3-3-3-6-6-6-3-|
C|-3-3-3-6-6-6-3-3-3-6-6-6-3-3-3-6-6-6-3-|

E|-------------------------|
C|-------------------------|
G|-------------------------|
C|-------------------------| X4
G|-------------------------|
C|-0-0-0-0-0-0-0-0-0-0-7-5-|

E|-----------------------------|
C|-----------------------------|
G|-----------------------------|
C|-----------------------------|
G|---------------------5-5-5-6-|
C|-0-0-0-0-0-0-0-0-0-0-5-5-5-6-|

You have failed to please mighty ziltoid...

E|------------------------------------------|
C|------------------------------------------|
G|------------------------------------------|
C|------------------------------------------|
G|-------8-------8-------8-------8--5-5-5-6-|
C|-6-7-9---6-7-9---6-7-9---6-7-9----5-5-5-6-|

E|-------------------------------------------------|
C|-------------------------------------------------|
G|-------------------------------------------------|
C|-------------------------------------------------|
G|-------8-------8-------8-------8-------7-------7-|
C|-6-7-9---6-7-9---6-7-9---6-7-9---5-6-8---5-6-8---|

E|-------------------------------|
C|-------------------------------|
G|-------------------------------|
C|-------------------------------|
G|-----------------1br-----------|
C|-5br-3-2-0-2-3-5-----4-2-1-2-4-|

E|-----------------------------------------------------------------------------------|
C|-----------------------------------------------------------------------------------|
G|-----------------------------------------------------------------------------------|
C|-----------------------------------------------------------------------------------|
G|-9--9--9--7-12--9---9---12-11-7--12-11-7-7-7-9--9--9--7-12--9---9---12-11-7--7-7*--|
C|-----------------------------------------------------------------------------------|

E|---------------------------------------|
C|---------------------------------------|
G|---------------------------------------|
C|---------------------------------------|
G|-3-3-3-6-6-6-3-3-3-6-6-6-3-3-3-6-6-6-3-|
C|-3-3-3-6-6-6-3-3-3-6-6-6-3-3-3-6-6-6-3-|

E|-------------------------|
C|-------------------------|
G|-------------------------|
C|-------------------------| X4
G|-------------------------|
C|-0-0-0-0-0-0-0-0-0-0-7-5-|

E|-----------------------------|
C|-----------------------------|
G|-----------------------------|
C|-----------------------------|
G|---------------------5-5-5-6-|
C|-0-0-0-0-0-0-0-0-0-0-5-5-5-6-|


variations on this

E|-----------------------|
C|-----------------------|
G|-----------------------|
C|-----------------------|
G|-------5---------------|
C|-5-6-8---8-6-4-5-7-5-4-|


no idea on this riff

E|----------------------------------|
C|----------------------------------|
G|--------------4-4-5-5-4-4---------|
C|------3-3-7-7-------------7-7-3-3-| X12?
G|--5-5-----------------------------|
C|----------------------------------|

Commander.....

E|-----------|
C|-----------|
G|-----------|
C|-----------| X?
G|-----------|
C|-0---0-0-0-|

Outro

E|----------------------------------------|
C|----------------------------------------|
G|----------------------------------------|
C|----------------------------------------|
G|----------------------------------------|
C|-0-0-0---0-0-0---0---0-0---0-0---0---0--|


3 Ziltoidia Attaxx

Intro

E|-------------------------|
C|-------------------------|
G|-------------------------|
C|-------------------------| X3
G|-0-0-0-0---0-0---0-0---0-|
C|-0-0-0-0---0-0---0-0---0-|

E|-------------------------|
C|-------------------------|
G|-------------------------|
C|-------------------------|
G|-0-0-0-2---2-3---3-2---2-|
C|-0-0-0-2---2-3---3-2---2-|

Repeat 4 times

E|----------------------|
C|----------------------|
G|----------------------|
C|----------------------| X3
G|----------------------|
C|-0--0-3---2-1-0-0-1-2-|

E|-------------------------|
C|-------------------------|
G|-------------------------|
C|-------------------------|
G|-------------------------|
C|-3-2-0-2-1-0-3-2-0-2-1-0-|

Verse

E|-------------------------|
C|-------------------------|
G|-------------------------|
C|-------------------------| X3
G|-0-0-0-0---0-0---0-0---0-|
C|-0-0-0-0---0-0---0-0---0-|

E|-----------------------|
C|-----------------------|
G|-----------------------|
C|-----------------------|
G|-0-0-0-0---0-0-0-0---0-|
C|-0-0-0-0---0-0-0-0---0-|

play twice

E|-------------------------|
C|-------------------------|
G|-------------------------|
C|-------------------------|
G|-1-1-1-1---1-1---1-1---1-|
C|-1-1-1-1---1-1---1-1---1-|

E|-------------------------|
C|-------------------------|
G|-------------------------|
C|-------------------------|
G|-0-0-0-0---0-0---0-0---0-|
C|-0-0-0-0---0-0---0-0---0-|

E|-------------------------|
C|-------------------------|
G|-------------------------|
C|-------------------------|
G|-1-1-1-1---1-1---1-1---1-|
C|-1-1-1-1---1-1---1-1---1-|

E|-----------------------|
C|-----------------------|
G|-----------------------|
C|-----------------------|
G|-0-0-0-0---0-0-0-0---0-|
C|-0-0-0-0---0-0-0-0---0-|

E|----------------------|
C|----------------------|
G|----------------------|
C|----------------------| X2
G|----------------------|
C|-0--0-3---2-1-0-0-1-2-|

E|-------------------------|
C|-------------------------|
G|-------------------------|
C|-------------------------| X3
G|-0-0-0-0---0-0---0-0---0-|
C|-0-0-0-0---0-0---0-0---0-|

E|-----------------------|
C|-----------------------|
G|-----------------------|
C|-----------------------|
G|-0-0-0-0---0-0-0-0---0-|
C|-0-0-0-0---0-0-0-0---0-|

Chorus

E|-----------------------------------------|
C|-----------------------------------------|
G|-----------------------------------------|
C|-----------------------------------------|
G|-7-7-7-7-7-7-7---3---6-6-6-6-6-6-6---2---|
C|-7-7-7-7-7-7-7---3---6-6-6-6-6-6-6---2---|

E|-------------------------|
C|-------------------------|
G|-------------------------|
C|-------------------------| X2
G|-0-0-0-0---0-0---0-0---0-|
C|-0-0-0-0---0-0---0-0---0-|

play 4 times

E|-----------------------------------------|
C|-----------------------------------------|
G|-----------------------------------------|
C|-----------------------------------------|
G|-7-7-7-7-7-7-7---3---6-6-6-6-6-6-6---2---|
C|-7-7-7-7-7-7-7---3---6-6-6-6-6-6-6---2---|

Bridge

E|----------------------|
C|----------------------|
G|----------------------|
C|----------------------| X3
G|----------------------|
C|-0--0-3---2-1-0-0-1-2-|

E|-------------------------|
C|-------------------------|
G|-------------------------|
C|-------------------------|
G|-------------------------|
C|-3-2-0-2-1-0-3-2-0-2-1-0-|

play 13 times

Chorus

E|-----------------------------------------|
C|-----------------------------------------|
G|-----------------------------------------|
C|-----------------------------------------|
G|-7-7-7-7-7-7-7---3---6-6-6-6-6-6-6---2---|
C|-7-7-7-7-7-7-7---3---6-6-6-6-6-6-6---2---|

E|-------------------------|
C|-------------------------|
G|-------------------------|
C|-------------------------| X2
G|-0-0-0-0---0-0---0-0---0-|
C|-0-0-0-0---0-0---0-0---0-|

play 3 times

Outro

E|------------------------------------------------------------------|
C|------------------------------------------------------------------|
G|------------------------------------------------------------------|
C|------------------------------------------------------------------|
G|-7-7-7-7-7-7-7---3---6-6-6-6-6-6-6---2----3---2---0---2---1---0---|
C|-7-7-7-7-7-7-7---3---6-6-6-6-6-6-6---2----3---2---0---2---1---0---|


section B

E|----------------------|
C|----------------------|
G|----------------------|
C|----------------------| X3
G|----------------------|
C|-0--0-3---2-1-0-0-1-2-|

E|-------------------------|
C|-------------------------|
G|-------------------------|
C|-------------------------|
G|-------------------------|
C|-3-2-0-2-1-0-3-2-0-2-1-0-|

Play section B X7


Section C

E|-------------------------|
C|-------------------------|
G|-------------------------|
C|-------------------------| X3
G|-0-0-0-0---0-0---0-0---0-|
C|-0-0-0-0---0-0---0-0---0-|

E|-----------------------|
C|-----------------------|
G|-----------------------|
C|-----------------------|
G|-0-0-0-0---0-0-0-0---0-|
C|-0-0-0-0---0-0-0-0---0-|

Repeat to fade

4 Solar Winds

Lots of Chorus and delay

E|-------------------------------------------------------|
C|-----------4-7--4---------------------6-9--6-----------|
G|-------3-5--------5-3-------------5-7--------7-5-------|
C|---2-5----------------5-2-----4-7----------------7-4---|X 2
G|-3--------------------------5--------------------------|
C|-------------------------------------------------------|


E|----------------------------------|
C|----------------------------------|
G|-----8-5-5---5-7-3----------------|
C|-0--------------------3-5----7----|
G|-0--------------------------------|
C|-0--------------------------------|

E|---------------------------------|
C|---------------------------------|
G|----8-5-5---5-7-3----------------|
C|---------------------3-5----0----|
G|---------------------------------|
C|---------------------------------|

E|---------------------------------|
C|---------------------------------|
G|----8-5-5---5-7-3----------------|
C|---------------------3-5----7----|
G|---------------------------------|
C|---------------------------------|

E|----------------------|
C|----------------------|
G|----------------------|
C|----------------------|
G|---5-7-8---7---3---5--|
C|----------------------|

E|------------------------------------|
C|------------------------------------|
G|-2-4-5--4-2--2-4-5-7-4-2-0--3-2-0---|
C|------------------------------------|
G|------------------------------------|
C|------------------------------------|

Add distortion

E|----------------------|
C|----------------------|
G|----------------------|
C|---7-9-10--9---5---7--| X2
G|---5-7-8---7---3---5--|
C|----------------------|

E|-------------|
C|-------------|
G|-------------|
C|-------------| X?
G|-------5-----|
C|-5-6-8---8-6-|

E|-------------|
C|-------------|
G|-------------|
C|-------------| X?
G|-------4-----|
C|-4-5-7---7-5-|

E|-------------------------------------|
C|-------------------------------------|
G|-------------------------------------|
C|-7-7-7-7-7-7-7-7-7-7-7-7-7-7-7-7-7-7-|
G|-5-5-5-5-5-5-5-5-5-5-5-5-5-5-5-5-5-5-|
C|-------------------------------------|

E|--------------------------------|
C|--------------------------------|
G|--------------------------------|
C|-----7-----9-----10--------7----| X4
G|-----5-----7-----8------11---11-|
C|-0-0---0-0---0-0---0-0----------|

E|---------------------------------------|
C|---------------------------------------|
G|---------------------------------------|
C|-----7-----7-----7-----7-----7---7-7-7-| X2
G|-----5-----5-----5-----5-----5---5-5-5-|
C|-0-0---0-0---0-0---0-0---0-0---0-------|

E|--------------------------------|
C|--------------------------------|
G|--------------------------------|
C|-----7-----9-----10--------7----| X4
G|-----5-----7-----8------11---11-|
C|-0-0---0-0---0-0---0-0----------|

E|---------------------------------------|
C|---------------------------------------|
G|---------------------------------------|
C|-----7-----7-----7-----7-----7---7-7-7-| X2
G|-----5-----5-----5-----5-----5---5-5-5-|
C|-0-0---0-0---0-0---0-0---0-0---0-------|

E|--------------------------------|
C|--------------------------------|
G|--------------------------------|
C|-----7-----9-----10--------7----| X4
G|-----5-----7-----8------11---11-|
C|-0-0---0-0---0-0---0-0----------|

E|-----------------------------------------------|
C|-----------------------------------------------|
G|-----------------------------------------------|
C|---------------------------------------------7-| X4
G|---------------------------------------------5-|
C|-0-0--0-0---0-0--0-0---0-0---0-0---0-0--0-0----|

E|-------------------------|
C|-------------------------|
G|-7---8--7--8----12-------|
C|-------------------------|
G|-------------------------|
C|-------------------------|

E|---------------|
C|---------------|
G|---------------|
C|-------------7-| X?
G|-------------5-|
C|-0-0-0-0-0-0---|

E|-----|
C|-----|
G|-----|
C|-7---|
G|-5---|
C|-----|


5 Hyperdrive

Intro

E|---------------------------------|
C|---------------------------------|
G|---------------------------------|
C|-8----10---10----9----8----10----| Gentle eighth note strum
G|-8----8----10----10---8----8-----|
C|-8----7----10----9----8----7-----|

E|------------------------------------|
C|------------------------------------|
G|-----------------0*-----------------|
C|-----2*----3*----------3*----3*p2*--| X2
G|------------------------------------|
C|-0-0---0-0---0-0---0-0---0-0--------|

Verse

E|------------------------------------|
C|------------------------------------|
G|-----------------0*-----------------|
C|-----2*----3*----------3*----3*p2*--|
G|------------------------------------|
C|-5-5---5-5---5-5---5-5---5-5--------|

E|-----------------------------------------------------------------------|
C|-----------------------------------------------------------------------|
G|-----------------0*---------------------------------0*-----------------|
C|-----2*----3*----------3*----3*p2*------2*----3*----------3*----3*p2*--|
G|-----------------------------------------------------------------------|
C|-3-3---3-3---3-3---3-3---3-3--------0-0---0-0---0-0---0-0---0-0--------|

Play this twice

Chorus

E|---------------------------------|
C|---------------------------------|
G|---------------------------------|
C|-8----10---10----9----8----10----| Gentle eighth note strum
G|-8----8----10----10---8----8-----|
C|-8----7----10----9----8----7-----|

E|------------------------------------|
C|------------------------------------|
G|-----------------0*-----------------|
C|-----2*----3*----------3*----3*p2*--| X2
G|------------------------------------|
C|-0-0---0-0---0-0---0-0---0-0--------|

Verse

E|------------------------------------|
C|------------------------------------|
G|-----------------0*-----------------|
C|-----2*----3*----------3*----3*p2*--|
G|------------------------------------|
C|-5-5---5-5---5-5---5-5---5-5--------|

E|-----------------------------------------------------------------------|
C|-----------------------------------------------------------------------|
G|-----------------0*---------------------------------0*-----------------|
C|-----2*----3*----------3*----3*p2*------2*----3*----------3*----3*p2*--|
G|-----------------------------------------------------------------------|
C|-3-3---3-3---3-3---3-3---3-3--------0-0---0-0---0-0---0-0---0-0--------|

Play this twice


Bridge

Chorus

E|-----------------|
C|-----------------|
G|-----------------|
C|-----------------| X3
G|-----------------|
C|-5-5-5-5-5-5-5-5-|

E|-----------------|
C|-----------------|
G|-----------------|
C|-------------8-8-|
G|-------------8-8-|
C|-5-5-5-5-5-5-8-8-|

E|---------------------------------|
C|---------------------------------|
G|---------------------------------|
C|---------------------------------| X2
G|-----8---8-----8---8-----8-8-8-8-|
C|-5-5-8-5-8-5-5-8-5-8-5-5-8-8-8-8-|

E|---------------------------------|
C|---------------------------------|
G|---------------------------------|
C|-----7---8-----7---8-----8-8-8-8-| X2
G|-----7---8-----7---8-----8-8-8-8-|
C|-0-0-7-0-8-0-0-7-0-8-0-0-8-8-8-8-|

E|---------------------------------|
C|---------------------------------|
G|-----7---8-----7---8-----8-8-8-8-|
C|---------------------------------| X2
G|-----7---8-----7---8-----8-8-8-8-|
C|-0-0---0---0-0---0---0-0---------|

Verse

E|------------------------------------|
C|------------------------------------|
G|-----------------0*-----------------|
C|-----2*----3*----------3*----3*p2*--|
G|------------------------------------|
C|-5-5---5-5---5-5---5-5---5-5--------|

E|-----------------------------------------------------------------------|
C|-----------------------------------------------------------------------|
G|-----------------0*---------------------------------0*-----------------|
C|-----2*----3*----------3*----3*p2*------2*----3*----------3*----3*p2*--|
G|-----------------------------------------------------------------------|
C|-3-3---3-3---3-3---3-3---3-3--------0-0---0-0---0-0---0-0---0-0--------|

Play this twice

Chorus

E|------------------------|
C|------------------------|
G|------------------------|
C|-8----10---10----9------| X2
G|-8----8----10----10-----|
C|-8----7----10----9------|


Outro

E|------------------------------------|
C|------------------------------------|
G|-----------------0*-----------------|
C|-----2*----3*----------3*----3*p2*--|
G|------------------------------------|
C|-5-5---5-5---5-5---5-5---5-5--------|

E|-----------------------------------------------------------------------------------|
C|-----------------------------------------------------------------------------------|
G|-----------------0*---------------------------------0*-----------------------------|
C|-----2*----3*----------3*----3*p2*------2*----3*----------3*----3*p2*----0---------|
G|-------------------------------------------------------------------------0---------|
C|-3-3---3-3---3-3---3-3---3-3--------0-0---0-0---0-0---0-0---0-0-------0--0---------|

6 N9

E|---------------------------------------------------------------------|
C|---------------------------------------------------------------------|
G|---------------------------------------------------------------------|
C|---------------------------------------------------------------------|
G|---------------------------------------------------------------------|
C|-0-0-0-0-0-0-0-0-0-2-2-2-2-2-2-2-2-2-2-0-0-0-0-0-0-0-0-0-1-1-1-1-1-1-|

E|--------------------------------------------------|
C|--------------------------------------------------|
G|--------------------------------------------------|
C|--------------------------------------------------|
G|--------3---------5---------3---------------3-----|
C|--0-0-0---0-0-0-0---0-0-0-0---0-0-0-0-0-3-4---4-3-|

E|--------------------------------------------------------|
C|--------------------------------------------------------|
G|--------------------------------------------------------|
C|--------------------------------------------------------|
G|--------3---------5---------3------------5*br---3*br----|
C|--0-0-0---0-0-0-0---0-0-0-0---0-0-0-0-0-----------------|

Verse

E|----------------------|
C|----------------------|
G|----------------------|
C|----------------------| X3
G|-0-1-1-1--1-1--1-1--1-|
C|-0-1-1-1--1-1--1-1--1-|

E|---------------------|
C|---------------------|
G|---------------------|
C|-2-3-3-3--3-3-3-3--3-|
G|-0-1-1-1--1-1-1-1--1-|
C|---------------------|

E|---------------------------------------------------------------------|
C|---------------------------------------------------------------------|
G|---------------------------------------------------------------------|
C|---------------------------------------------------------------------|
G|---------------------------------------------------------------------|
C|-0-0-0-0-0-0-0-0-0-2-2-2-2-2-2-2-2-2-2-0-0-0-0-0-0-0-0-0-1-1-1-1-1-1-|

E|--------------------------------------------------|
C|--------------------------------------------------|
G|--------------------------------------------------|
C|--------------------------------------------------|
G|--------3---------5---------3-----------5-5-5-5-5-|
C|--0-0-0---0-0-0-0---0-0-0-0---0-0-0-0-0-----------|

E|--------------------------------------------------------|
C|--------------------------------------------------------|
G|--------------------------------------------------------|
C|--------------------------------------------------------|
G|--------3---------5---------3------------3*br---5*br----|
C|--0-0-0---0-0-0-0---0-0-0-0---0-0-0-0-0-----------------|

E|----------------------|
C|----------------------|
G|----------------------|
C|----------------------| X3
G|-0-1-1-1--1-1--1-1--1-|
C|-0-1-1-1--1-1--1-1--1-|

E|---------------------|
C|---------------------|
G|---------------------|
C|-2-3-3-3--3-3-3-3--3-|
G|-0-1-1-1--1-1-1-1--1-|
C|---------------------|

E|---------------------------------------------------------------------------------------------------------------------------------|
C|---------------------------------------------------------------------------------------------------------------------------------|
G|---------------------------------------------------------------------------------------------------------------------------------|
C|-----------------------------------------------------------------7-7-7-7-----------------7-7-7-7---------------------------------|
G|---------3-3-3-3-7-7-7-7---------3-3-3-3-7-7-7-7-3-3-3-3-7-7-7-7---------3-3-3-3-7-7-7-7-----------------3-3-3-3-7-7-7-7-7-7-7-7-|
C|-7-7-7-7-----------------7-7-7-7-----------------------------------------------------------------7-7-7-7-------------------------|

E|-------------------------|
C|-------------------------|
G|-------------------------|
C|-------------------------| X8
G|---------3-3-3-3-7-7-7-7-|
C|-7-7-7-7-----------------|

I feel so vulnerable...


E|---------------------------------------------------------------------------------|
C|---------------------------------------------------------------------------------|
G|---------3-7-3---------------3-7-3---------------2-5-2---------------2-5-2-------|
C|-------7-------7-----------7-------7-----------5-------5-----------5-------5-----|
G|---3-7-----------7-3---3-7-----------7-3---2-5-----------5-2---2-5-----------5-2-|
C|-7-------------------7-------------------5-------------------5-------------------|


E|------------------------------------------------------------------------------------|
C|------------------------------------------------------------------------------------|
G|------------------------------------------------------------------------------------|
C|------------------------------------------------------------------------------------|
G|--------------------------------------------------0--0--0-------------------0--0--0-|
C|-0-0-0---0-0-0---0-0-0---0-0-0---0-0-0-0-0-0-0-0--0--0--0--0-0-0-0-0-0-0-0--0--0--0-|


E|-----------------------------|
C|-----------------------------|
G|-----------------------------|
C|---------7-8-7h8p7-----------| Repeat and fade
G|---5-6-8-----------8-6-5-----|
C|-8-----------------------8-7-|

7 Planet Smasher

Intro

E|-------------------------------------|
C|-------------------------------------|
G|-------------------------------------|
C|-------------------------------------|
G|-----------------0-0-----------------|
C|-0-0-0-0-0-0-0-0-0-0-0-0-0-0-0-0-0-0-|

use whammy pedal to change pitch

E|---------------|
C|---------------|
G|---------------|
C|---------------|
G|---------------|
C|-0-0-0--0-0-0--|


Planet smasher section


E|-------------------------------------------|
C|-------------------------------------------|
G|-------------------------------------------|
C|-------------------------------------------|
G|-------------------------------------------|
C|-0--0-0-7--0-8---0-5-0-7-0-2-2-2-2-3-3-3-3-|

E|---------------------------|
C|---------------------------|
G|---------------------------|
C|---------------------------|
G|-0-0-0--0--0-0-0---0-2-0-3-|
C|-0-0-0--0--0-0-0---0-2-0-3-|

E|--------------------------|
C|--------------------------|
G|--------------------------|
C|--------------------------|
G|-2-2-2--2--2-2-2----3-2-5-|
C|-2-2-2--2--2-2-2----3-2-5-|

E|---------------------------|
C|---------------------------|
G|---------------------------|
C|---------------------------|
G|-0-0-0--0--0-0-0---0-2-0-3-|
C|-0-0-0--0--0-0-0---0-2-0-3-|

E|----------------------------|
C|----------------------------|
G|----------------------------|
C|----------------------------|
G|-2-2-2--2--2-2-2--2--2-2-2--|
C|-2-2-2--2--2-2-2--2--2-2-2--|

E|---------------------------|
C|---------------------------|
G|---------------------------|
C|---------------------------| X3
G|-0-0-0--0--0-0-0---0-2-0-3-|
C|-0-0-0--0--0-0-0---0-2-0-3-|

E|-----------|
C|-----------|
G|-----------|
C|-----------|
G|-2-3-2-3-5-|
C|-2-3-2-3-5-|

E|-----------------------------|
C|-----------------------------|
G|-----------------------------|
C|-----------------------------|
G|-2-2-3-2-3-2-3-2-5-2-5-2-5-5-|
C|-2-2-3-2-3-2-3-2-5-2-5-2-5-5-|


E|-------------------------------|
C|-------------------------------|
G|-------------------------------|
C|-------------------------------|
G|-0-0-0-0-0-0-0-0-0-0-0-0-2-3-5-|
C|-0-0-0-0-0-0-0-0-0-0-0-0-2-3-5-|

Ziltoid section

E|---------------------------------------------------|
C|---------------------------------------------------|
G|---------------------------------------------------|
C|-8-8-8-8-8-8-8-8-8-8-8-101010106-6-6-5-5-5-5-5-5-5-|
G|-6-6-6-6-6-6-6-6-6-6-6-8-8-8-8-4-4-4-3-3-3-3-3-3-3-|
C|---------------------------------------------------|


E|-----------------------------------|
C|-----------------------------------|
G|-------------------3-3-3-3-3-3-3-3-|
C|-5-5-5-5-5-5-5-5-5-----------------|
G|-3-3-3-3-3-3-3-3-3-3-3-3-3-3-3-3-3-|
C|-----------------------------------|

Planet smasher section

E|---------------------------|
C|---------------------------|
G|---------------------------|
C|---------------------------| X3
G|-0-0-0--0--0-0-0---0-3-0-3-|
C|-0-0-0--0--0-0-0---0-3-0-3-|

E|-----------|
C|-----------|
G|-----------|
C|-----------|
G|-2-3-2-5-3-|
C|-2-3-2-5-3-|

Ziltoid Section

E|----------------------------------------|
C|----------------------------------------|
G|----------------------------------------|
C|----------------------------------------|
G|----------------------------------------|
C|-2-2-2-2-2-2-2---2-2-2-2-2-2---2-2-2-2--|

E|----------------------------------------|
C|----------------------------------------|
G|----------------------------------------|
C|----------------------------------------|
G|----------------------------------------|
C|-3-3-3-3-3-3-3---3-3-3-3-3-3---3-3-3-3--|

E|----------------------------------------|
C|----------------------------------------|
G|----------------------------------------|
C|----------------------------------------|
G|----------------------------------------|
C|-2-2-2-2-2-2-2---2-2-2-2-2-2---2-2-2-2--|

E|----------------------------------------|
C|----------------------------------------|
G|----------------------------------------|
C|----------------------------------------|
G|----------------------------------------|
C|-2-2-2-2-2-2-2---0-0-0-0-0-0---0-0-0-0--|

 X2

E|---------------------------|
C|---------------------------|
G|---------------------------|
C|---------------------------| X3
G|-0-0-0--0--0-0-0---0-3-0-3-|
C|-0-0-0--0--0-0-0---0-3-0-3-|

E|-----------|
C|-----------|
G|-----------|
C|-----------|
G|-2-3-2-5-3-|
C|-2-3-2-5-3-|

Bridge

E|---------------------------------------------------|
C|---------------------------------------------------|
G|---------------------------------------------------|
C|---------9-----10-------7---9----------------------|
G|---------7-----8--------5---7----------------------|
C|-0-0-0-0---0-0-----0-0----0----0-2-2-2-2-2-2-2-2-0-|


Ziltoid section

E|---------------------------------------------------|
C|---------------------------------------------------|
G|---------------------------------------------------|
C|-8-8-8-8-8-8-8-8-8-8-8-101010106-6-6-5-5-5-5-5-5-5-|
G|-6-6-6-6-6-6-6-6-6-6-6-8-8-8-8-4-4-4-3-3-3-3-3-3-3-|
C|---------------------------------------------------|


E|-----------------------------------|
C|-----------------------------------|
G|-------------------3-3-3-3-3-3-3-3-|
C|-5-5-5-5-5-5-5-5-5-----------------|
G|-3-3-3-3-3-3-3-3-3-3-3-3-3-3-3-3-3-|
C|-----------------------------------|

Outro

E|-------------------------------------|
C|-------------------------------------|
G|-------------------------------------|
C|-------------------------------------|
G|-----------------0-0-----------------|
C|-0-0-0-0-0-0-0-0-0-0-0-0-0-0-0-0-0-0-|

With whammy pedal

8 Omnidemensional creator

No guitar

9 Colour Your World

Intro

E|-----------------------------------------------|
C|-----------------------------------------------|
G|-----------------------------------------------|
C|-----------------------------------------------|
G|-6---------6---------6-------------------------|
C|-6-0-0-0-0-6-0-0-0-0-6-0-0-0-0-6-6-7-7-6-6-5-5-|

E|-------------------------------------------|
C|-------------------------------------------|
G|-------------------------------------------|
C|-------------------------------------------|
G|-6---------6---------6-----6-----6---6-6-6-|
C|-6-0-0-0-0-6-0-0-0-0-6-0-0-6-0-0-6-0-6-6-6-|

E|-----------------------------------------------|
C|-----------------------------------------------|
G|-----------------------------------------------|
C|-----------------------------------------------|
G|-6---------6---------6-------------------------|
C|-6-0-0-0-0-6-0-0-0-0-6-0-0-0-0-6-6-7-7-6-6-5-5-|

E|-------------------------------------------|
C|-------------------------------------------|
G|-------------------------------------------|
C|-------------------------------------------|
G|-6---------6---------6-----6-----6---6-6---|
C|-6-0-0-0-0-6-0-0-0-0-6-0-0-6-0-0-6-0-6-6---|

Verse

E|-----------------------------------------------|
C|-----------------------------------------------|
G|-----------------------------------------------|
C|-----------------------------------------------|
G|-6---------6---------6-------------------------|
C|-6-0-0-0-0-6-0-0-0-0-6-0-0-0-0-6-6-7-7-6-6-5-5-|

E|-------------------------------------------|
C|-------------------------------------------|
G|-------------------------------------------|
C|-------------------------------------------|
G|-6---------6---------6-----6-----6---6-6-6-|
C|-6-0-0-0-0-6-0-0-0-0-6-0-0-6-0-0-6-0-6-6-6-|

E|-----------------------------------------------|
C|-----------------------------------------------|
G|-----------------------------------------------|
C|-----------------------------------------------|
G|-6---------6---------6-------------------------|
C|-6-0-0-0-0-6-0-0-0-0-6-0-0-0-0-6-6-7-7-6-6-5-5-|

E|-------------------------------------------|
C|-------------------------------------------|
G|-------------------------------------------|
C|-------------------------------------------|
G|-6---------6---------6-----6-----6---6-6---|
C|-6-0-0-0-0-6-0-0-0-0-6-0-0-6-0-0-6-0-6-6---|

Chorus

E|---------------------------------|
C|---------------------------------|
G|-6-6-6-6-5-5-5-5-3-3-3-3-2-2-2-2-|
C|---------------------------------|
G|-6-6-6-6-5-5-5-5-3-3-3-3-2-2-2-2-|
C|---------------------------------|

Verse

E|-----------------------------------------------|
C|-----------------------------------------------|
G|-----------------------------------------------|
C|-----------------------------------------------|
G|-6---------6---------6-------------------------|
C|-6-0-0-0-0-6-0-0-0-0-6-0-0-0-0-6-6-7-7-6-6-5-5-|

E|-------------------------------------------|
C|-------------------------------------------|
G|-------------------------------------------|
C|-------------------------------------------|
G|-6---------6---------6-----6-----6---6-6-6-|
C|-6-0-0-0-0-6-0-0-0-0-6-0-0-6-0-0-6-0-6-6-6-|

E|-----------------------------------------------|
C|-----------------------------------------------|
G|-----------------------------------------------|
C|-----------------------------------------------|
G|-6---------6---------6-------------------------|
C|-6-0-0-0-0-6-0-0-0-0-6-0-0-0-0-6-6-7-7-6-6-5-5-|

E|-------------------------------------------|
C|-------------------------------------------|
G|-------------------------------------------|
C|-------------------------------------------|
G|-6---------6---------6-----6-----6---6-6---|
C|-6-0-0-0-0-6-0-0-0-0-6-0-0-6-0-0-6-0-6-6---|


E|-----------------------------------------------------------------------|
C|-----------------------------------------------------------------------|
G|-----------------------------------------------------------------------|
C|-----------------------------------------------------------------------| X2
G|--5-5-5-5-6-6-6-6-5-5-5-5---------5-5-5-5-6-6-6-6-5-5-5-5--------------|
C|--------------------------0-0-0-0-------------------------12-slide-down|


E|---------------------------------------------------------------|
C|---------------------------------------------------------------|
G|---------------------------------------------------------------|
C|---------------------------------------------------------------| X2
G|-----5-------5-------6-------6-------7-------7-------6-------6-|
C|-5-5-5---5-5-5---6-6-6---6-6-6---7-7-7---7-7-7---6-6-6---6-6-6-|

E|----------------------------------------------------|
C|----------------------------------------------------|
G|----------------------------------------------------|
C|----------------------------------------------------|
G|--7-6---------6-5---------5-4-----------------------|
C|--7-6-5-5-5-5-6-5-4-4-4-4-5-4-3-3-3-3-0-0-3-3-4-4-5-|

E|--------------------------------------------------|
C|--------------------------------------------------|
G|--------------------------------------------------|
C|--------------------------------------------------|
G|--7-6---------6-5---------5-4---------0--0--0--0--|
C|--7-6-5-5-5-5-6-5-4-4-4-4-5-4-3-3-3-3-0--0--0--0--|


E|-----------------------------------------------|
C|-----------------------------------------------|
G|-----------------------------------------------|
C|-----------------------------------------------|
G|-6---------6---------6-------------------------|
C|-6-0-0-0-0-6-0-0-0-0-6-0-0-0-0-6-6-7-7-6-6-5-5-|

E|-------------------------------------------|
C|-------------------------------------------|
G|-------------------------------------------|
C|-------------------------------------------|
G|-6---------6---------6-----6-----6---6-6-6-|
C|-6-0-0-0-0-6-0-0-0-0-6-0-0-6-0-0-6-0-6-6-6-|

E|-----------------------------------------------|
C|-----------------------------------------------|
G|-----------------------------------------------|
C|-----------------------------------------------|
G|-6---------6---------6-------------------------|
C|-6-0-0-0-0-6-0-0-0-0-6-0-0-0-0-6-6-7-7-6-6-5-5-|

E|-------------------------------------------|
C|-------------------------------------------|
G|-------------------------------------------|
C|-------------------------------------------|
G|-6---------6---------6-----6-----6---6-6---|
C|-6-0-0-0-0-6-0-0-0-0-6-0-0-6-0-0-6-0-6-6---|

Arpeggio Section

E|-------------------------|
C|-------------------------|
G|---------5-8-8-5---------|
C|-------8---------8-------| X2
G|---5-8-------------8-5---|
C|-8---------------------8-|

E|-------------------------|
C|-------------------------|
G|---------2-5-5-2---------|
C|-------5---------5-------| X2
G|---2-5-------------5-2---|
C|-5---------------------5-|

play twice

E|----------------------------------|
C|----------------------------------|
G|----------------------------------|
C|-6---------7---------8-------9----|
G|-5-5-4-5-6-6-6-5-6-7-7-7-6-7-8-7*-|
C|----------------------------------|

E|-----------------------------------------------------------------|
C|-----------------------------------------------------------------|
G|-----------------------------------------------------------------|
C|-----------------------------------------------------------------| X2
G|-----------------------------------------------------------------|
C|-0-0-0-0-2-2-3-3-0-0-0-0-2-2-3-3-2-2-2-2-4-4-5-5-2-2-2-2-4-4-5-5-|
all tremelo picking

E|-----------------------------------------------------------------|
C|-----------------------------------------------------------------|
G|-----------------------------------------------------------------|
C|-----------------------------------------------------------------| X2
G|-----------------------------------------------------------------|
C|-0-0-0-0-3-3-2-2-0-0-0-0-3-3-2-2-2-2-2-2-5-5-4-4-2-2-2-2-5-5-4-4-|
all tremelo picking

E|-----------|
C|-----------|
G|-----------|
C|-----------| repeat and fade
G|---------1-|
C|-0-0-0-0-1-|


Arpeggio section 2

E|-------------------------|
C|-------------------------|
G|---------5-8-8-5---------|
C|-------8---------8-------| X2
G|---5-8-------------8-5---|
C|-8---------------------8-|

E|-------------------------|
C|-------------------------|
G|---------2-5-5-2---------|
C|-------5---------5-------| X2
G|---2-5-------------5-2---|
C|-5---------------------5-|

slight variations on this throughout

E|---------------------------------|
C|---------------------------------|
G|---------------------------------|
C|---------------------------------|
G|---------0---------------0-------|
C|-0-2-3-5---5-3-2-0-2-3-5---5-3-2-|


E|-----------------------------------|
C|-----------------------------------|
G|-----------------------------------|
C|-0-0-0-0-0-0-0-0-0-0-0-0-0-0-0-0-0-|
G|-----------------------------------|
C|-----------------------------------|


E|---------------------|
C|---------------------|
G|---------------------|
C|-0-0-0--0--0--0--0---|
G|---------------------|
C|---------------------|


E|---------------------|
C|---------------------|
G|---------------------|
C|-4-4-4--4--4--4--4---|
G|---------------------|
C|---------------------|


E|---------------------|
C|---------------------|
G|---------------------|
C|-3-3-3--3--3-3-3--3--|
G|---------------------|
C|---------------------|


E|----------------------|
C|----------------------|
G|-2-5---2-5---5-5-5-5--|
C|----------------------|
G|----------------------|
C|----------------------|

E|-----------------------------------|
C|-----------------------------------|
G|-0-0-0-0-0-0-0-0-0-0-0-0-0-0-0-0-0-|
C|-0-0-0-0-0-0-0-0-0-0-0-0-0-0-0-0-0-|
G|-----------------------------------|
C|-----------------------------------|

E|--------------------------------|
C|--------------------------------|
G|-4---4---4-----4-4--------------|
C|-5-5-5-5-5-5-5-5-5-5-5-5-5-5-5--|
G|--------------------------------|
C|--------------------------------|

E|--------------------------------|
C|--------------------------------|
G|--------------------------------|
C|--------------------------------|
G|-4---4---4-----4-4--------------|
C|-5-5-5-5-5-5-5-5-5-5-5-5-5-5-5--|

E|--------------------------------|
C|--------------------------------|
G|--------------------------------|
C|--------------------------------|
G|-0---0---0-----0-0--------------|
C|-0-0-0-0-0-0-0-0-0-0-0-0-0-0-0--|

10 The Greys

E|---|
C|---|
G|---|
C|-4-|
G|---|
C|---|

E|---------------------------------|
C|---------------------------------|
G|---------------------------------|
C|---------------------------------|
G|-----4---4-----4---4-----4-4-4-4-|
C|-4-4-4-4-4-4-4-4-4-4-4-4-4-4-4-4-|


E|---------------------------------|
C|---------------------------------|
G|---------------------------------|
C|---------------------------------|
G|-----0---0-----0---0-----4-4-4-4-|
C|-0-0-0-0-0-0-0-0-0-0-2-2-4-4-4-4-|

E|---------------------------------|
C|---------------------------------|
G|---------------------------------|
C|---------------------------------|
G|-----4---4-----4---4-----4-4-4-4-|
C|-4-4-4-4-4-4-4-4-4-4-4-4-4-4-4-4-|

E|-----------------|
C|-----------------|
G|-4-4-4-4-6-6-6-6-|
C|-----------------|
G|-4-4-4-4-6-6-6-6-|
C|-----------------|

E|---------------------------------|
C|---------------------------------|
G|---------------------------------|
C|---------------------------------|
G|-4-4-4-4-4-4-4-4-2-2-2-2-2-2-2-2-|
C|-4-4-4-4-3-3-3-3-2-2-2-2-1-1-1-1-|

E|---------------------------------|
C|---------------------------------|
G|---------------------------------|
C|---------------------------------|
G|-----4---4-----4---4-----4-4-4-4-|
C|-4-4-4-4-4-4-4-4-4-4-4-4-4-4-4-4-|

E|-----------------|
C|-----------------|
G|-4-4-4-4-6-6-6-6-|
C|-----------------|
G|-4-4-4-4-6-6-6-6-|
C|-----------------|

E|---------------------------------|
C|---------------------------------|
G|---------------------------------|
C|---------------------------------|
G|-4-4-4-4-4-4-4-4-2-2-2-2-2-2-2-2-|
C|-4-4-4-4-3-3-3-3-2-2-2-2-1-1-1-1-|

E|---|
C|---|
G|---|
C|-4-|
G|---|
C|---|

E|---------------------------------|
C|---------------------------------|
G|---------------------------------|
C|---------------------------------|
G|-----0---0-----0---0-----4-4-4-4-|
C|-0-0-0-0-0-0-0-0-0-0-2-2-4-4-4-4-|

E|---------------------------------|
C|---------------------------------|
G|---------------------------------|
C|---------------------------------|
G|-----4---4-----4---4-----4-4-4-4-|
C|-4-4-4-4-4-4-4-4-4-4-4-4-4-4-4-4-|

E|-----------------|
C|-----------------|
G|-4-4-4-4-6-6-6-6-|
C|-----------------|
G|-4-4-4-4-6-6-6-6-|
C|-----------------|

E|---------------------------------|
C|---------------------------------|
G|---------------------------------|
C|---------------------------------|
G|-4-4-4-4-4-4-4-4-2-2-2-2-2-2-2-2-|
C|-4-4-4-4-3-3-3-3-2-2-2-2-1-1-1-1-|

E|-----------------|
C|-----------------|
G|-4-4-4-4-6-6-6-6-|
C|-----------------|
G|-4-4-4-4-6-6-6-6-|
C|-----------------|

E|---------------------------------|
C|---------------------------------|
G|---------------------------------|
C|---------------------------------|
G|-4-4-4-4-4-4-4-4-2-2-2-2-2-2-2-2-|
C|-4-4-4-4-3-3-3-3-2-2-2-2-1-1-1-1-|

11 Tall Latte

No guitar

THE END!
SPECIAL THANKS TO DEVIN TOWNSEND!!
5 comments total. Showing first comments.
0 reply
travislausch wrote on July 28 2007, 01:54 pm

It's missing a lot of stuff, but this is going to make a perfect base for me to learn the material from.

By the way, he plays a 7-string with an extra low G string on this record as well.

0 reply
KileManA7X wrote on September 3 2007, 02:00 pm

Thank you!

0 reply
Sintera666 wrote on November 6 2007, 10:29 pm

This is pretty accurate, great job!
You did leave some parts out, but you are the first to put these tabs up so I can understand.
AWESOME!!!! KEEP IT METAL!!!!

I want to post or [tab]
guest
You may want to rate the tab now too:
select rating
Please do not post tabs as comments. Select "correction" instead!