Oops, an error
Loading. Please wait.

Adrenaline Tab

ver1
ver1

Whole song

Interactive

More versions @911Tabs.com
1,922 views 3 this week
no commentswrite comment
1 2 3 4 5
accurate
x 4
Autoscroll
+/-
esc
set tempo
stop
NEW! There's an official Ultimate Guitar app which is ideal
for learning songs when you're away from computer. Get the app
WARNING: You are trying to view
                                    content from Ultimate-Guitar.com
                                    in an unauthorized application,
                                    which is prohibited.

                                    Please use an official Ultimate
                                    Guitar Tabs application for iPhone,
                                    iPad or Android to access legitimate
                                    chords, guitar, bass, and drum tabs
                                    from Ultimate-Guitar.com database.

                                    Type "ultimate guitar tabs" in Apple
                                    App Store's or Android Market's
                                    search to find the application.
Di-rect:  Adrenaline tab&lyrics

Huy guys I couldnt find a adrenaline tab so i made one myself 
enjoy!

Special signs: s\=  slide down to 0
             : *4=  How many times you have to stroke it
             : *?=  You have to listen to the song to find out how many times it is





e|------------------------------------------------------------------------------
b|------------------------------------------------------------------------------
g|--6-------------6---------------6----------6----------6----------6------------
d|--6--7--2-------6--7--2------2--6--7----2--6--7----2--6--7----2--6--7---------
a|--4--7--2-------4--7--2------2--4--7----2--4--7----2--4--7----2--4--7---------
e|-----5--0----------5--0------0-----5----0-----5----0-----5----0-----5---------
  Intro                        Verse  
             Put it to....     (Palm muted)





e|-------------------------------------------------------------------------------
b|-------------------------------------------------------------------------------
g|-----s\------s\------s\--------------------------------------------------------
d|--6--7----6--7----6--7----6--7--7--2-------9--11--6--7--2----------------------
a|--6--7----6--7----6--7----6--7--7--2-------9--11--6--7--2----------------------
e|--4--5----4--5----4--5----4--5--5--0-------7---9--4--5--0----------------------
       
    *4 *3   *4 *3   *4 *3   *4 *3 *4 *3      *?  *? *5 *5 *?    
  pre-Chorus                                 Chorus (Play this 2 times)

Then play it all over again without the intro, and than there is a solo

e|--------------------------------------------------------------------------------
b|-----12--10--9----12--10--9-----12--10--9--10--10--9----------------------------
g|--9--------------------------9------------------------8--9--11--9---------------
d|--------------------------------------------------------------------------------
a|--------------------------------------------------------------------------------
e|--------------------------------------------------------------------------------

Play it fast with your right hand


e|--------------------------------------------------------------------------------
b|-----12--10--9----12--10--9-----12--10--9--10--10--9----------------------------
g|--9--------------------------9------------------------8--9----------------------  
d|--------------------------------------------------------------------------------
a|--------------------------------------------------------------------------------
e|--------------------------------------------------------------------------------

And then

e|---------------------------------------------------------------------------------
b|---------------------------------------------------------------------------------
g|-------------------------------------------------------6---------------------6---
d|----6--7--7--9--11--6--7--2-----9--11--6--7--6--7---2--6--7----2--4--7----2--6--7
a|----6--7--7--9--11--6--7--2-----9--11--6--7--6--7---2--4--7----2--4--7----2--4--7
e|----4--5--5--7---9--4--5--0-----7---9--4--5--4--5---0-----5----0--2--5----0-----5
     
     *4 *3 *2 *?  *? *5 *5 *?     *? *? *5 *5 *5 *1  *? *5 *6   *? *5 *6   *? *5 *6   


e|---------------------------------------------------------------------------------
b|---------------------------------------------------------------------------------
g|-------6-------------------------------------------------------------------------
d|----2--6--7--2-------------------------------------------------------------------
a|----2--4--7--2-------------------------------------------------------------------
e|----0-----5--0-------------------------------------------------------------------
    
     *1 *5 *5 *1



Hey hey hey hey hey 
Go! 

Put it to the test 
What if life became a game 
And is your crash dropt down the drain 
Could you manage on your own 
Rather be someone you did not know 
I didn't know I had it all 
Was at the notion it was to fall 
Get it girl that's got a pill 
I really need a thrill 

I put it to the test 
I mean a second gift 
I'll get it on my chest 
I wanne thrill a lest 
I wanne feel no fear, no fear 

Let it go let it flow 
Through my mind 
through my soul 
It's all adrenaline, yeah yeah yeah yeah 
Let it go let it blow 
For my vaigns up to my brains 
I need adrenaline 
To take control 

When I see through 
I realise there's someone new 
Digs you takes control 
Plissie fear I feel my fear 

And I w! onder 
How far I go 
But it kills me 
I need to know 

I put to the test 
I mean a second gift 
I get it up my chest 
I wanne feel a last? 
I wanne feel no fear, no fear 

Let it go let it flow 
Through my mind 
through my soul 
It's all adrenaline, yeah yeah yeah yeah 
Let it go let it blow 
for my vaigns up to my brains 
I need adrenaline 
To take control 

I realise she's truly gone 
Disappeared like a bullet leaves the gun 

Let it go let it flow 
Through my mind 
Through my soul 
It's all adrenaline, yeah yeah yeah yeah 
Let it go let it blow 
For my vaigns up to my brains 
I need adrenaline 
To take control 

Let it go 
Let it flow, I need adrenaline 
Let it go 
Let it blow, I need it 
Let it go 
Let it flow, I need adrenaline 
Let it go 
Let it blow, I feel it 

Go!



Have fun!

For questions mai me: david.kooijman@12move.nl


David Kooijman
comments
print report bad tab
I want to post or [tab]
guest
You may want to rate the tab now too:
select rating
Please do not post tabs as comments. Select "correction" instead!