Oops, an error
Loading. Please wait.

Am I Evil Tab

ver1
ver1

Whole song

Interactive

More versions @911Tabs.com
74,351 views 159 this week
10 commentsread comments
1 2 3 4 5
accurate
x 20
Autoscroll
+/-
esc
set tempo
stop
Contributor
Hey! There's an official Ultimate Guitar app which is ideal
for learning songs when you're away from computer. Get the app
WARNING: You are trying to view
                                    content from Ultimate-Guitar.com
                                    in an unauthorized application,
                                    which is prohibited.

                                    Please use an official Ultimate
                                    Guitar Tabs application for iPhone,
                                    iPad or Android to access legitimate
                                    chords, guitar, bass, and drum tabs
                                    from Ultimate-Guitar.com database.

                                    Type "ultimate guitar tabs" in Apple
                                    App Store's or Android Market's
                                    search to find the application.
Diamond head: Am I Evil
Tuning: Standard


Intro (0:00)
e|--------------------------------------|
B|--------------------------------------|
G|-9--9-9-9-9--9-9-9-9--9-9-9-9-9-9-9-9-|
D|-9--9-9-9-9--9-9-9-9--9-9-9-9-9-9-9-9-|
A|-7--7-7-7-7--7-7-7-7--7-7-7-7-7-7-7-7-|
E|-0--0-0-0-0--0-0-0-0--0-0-0-0-0-0-0-0-|

Chords in background of intro (0:10)
e|--------------------------------|
B|--------------------------------|
G|--------------------------------|
D|--------------------------------|
A|-2-----9-8----3-2----9-8----3-2-|
E|-0-----7-6----1-0----7-6----1-0-|

(Both)
e|----------------------------------------------|
B|----------------------------------------------|
G|-7-7-7-7-7-7-7-7-7-9--9-9-9-9--9-9-9-9--7-7-7-|
D|-7-7-7-7-7-7-7-7-7-9--9-9-9-9--9-9-9-9--7-7-7-|
A|-5-5-5-5-5-5-5-5-5-7--7-7-7-7--7-7-7-7--5-5-5-|
E|----------------------------------------------|
  (1:09)
e|---------------------------------------|
B|---------------6-5-6â€"6^8--8^10--10^12--|
G|-----------4-3-------------------------|
D|-------3-2-----------------------------|
A|---2-1---------------------------------|
E|-0-------------------------------------|

Intro Solo  (1:20)
e|-------------------------------------------------|
B|-0^5^8-0^5^8-0^5^8-0^5^8-0^5^8-0^5^8-0^5^8-0^5^8-|
G|-------------------------------------------------|
D|-------------------------------------------------|
A|-------------------------------------------------|
E|-------------------------------------------------|

e|-------------------------------------------------
B|-0^4^7-0^4^7-0^4^7-0^4^7-0^4^7-0^4^7-0^4^7-0^4^7-
G|-------------------------------------------------
D|-------------------------------------------------
A|-------------------------------------------------
E|-------------------------------------------------

e|--------------------------------------------------------------------|
B|-0^5^8-0^5^8-0^5^8-0^5^8-0^7^9-0^7^9-0^5^8-0^5^8-0^4^7-0^4^7-0^4^7--|
G|--------------------------------------------------------------------|
D|--------------------------------------------------------------------|
A|--------------------------------------------------------------------|
E|--------------------------------------------------------------------|

e|--<7>-----------|
B|-<7>------------|
G|------<7>-------|
D|----<7>------<7>|
A|----------<7>---|
E|----------------|

Verse (Repeat) (1:34)
e|-------------------------|
B|-------------------------|
G|-------------------------|
D|---------------------3-2-|
A|-2-2-2-5-2-2-7-2-2-2-1-0-|
E|-0-0-0-3-0-0-5-0-0-0-----|
   . . .   . .   . . .



Pre-Chorus (2:18)
e|----------------------------|
B|----------------------------|
G|----------------------------|
D|---------7-----9-------10-9-|
A|-9-9-9-9-5-9-9-7-9-9-9-8--7-|
E|-7-7-7-7---7-7---7-7-7------|
   . . . .   . .   . . .

Chorus (2:29)
e|-------------------------|
B|-------------------------|
G|-------------------------|
D|---------------------3-2-|
A|-2-2-2-5-2-2-7-2-2-2-1-0-|
E|-0-0-0-3-0-0-5-0-0-0-----|
   . . .   . .   . . .

Post-Chorus Second Time (3:45)
e|---------|
B|---------|
G|---------|
D|-9-7-5-5-|
A|-7-5-3-3-|
E|---------|

Interlude (3:58)
e|--------------------------------------------------------------------------|
B|--------------------------------------------------------------------------|
G|---------------------------------7-------------------------------5--------|
D|---------------------7-------5---7-----7-------7---------7-------5---5----|
A|--7--7777-7--7777----7--7777-5---5-----7--7777-7--7777---7--7777-3---5----|
E|--5--5555-5--5555----5--5555-3---------5--5555-5--5555---5--5555-----3----|

e|-----------------------------------------------------|
B|-----------------------------------------------------|
G|-----------------------------------------------------|
D|-----------------------12----------------------12-12-|
A|-----------------------12----------------------12-12-|
E|-0-0000-0-0000-0-0000--10-0-0000-0-0000-0-0000-10-10-|

e|------------|
B|------------|
G|------------|
D|------------|
A|-2----5---7-|
E|-0----3---5-|

Solo (5:18) 
e|----7---------7-----11--12-11h12p11----11--12-14--11h12p11----12--11-------|
B|------10p7-------12-----------------12---------------------12--------12-10-|
G|-9b---------9--------------------------------------------------------------|
D|---------------------------------------------------------------------------|
A|---------------------------------------------------------------------------|
E|---------------------------------------------------------------------------|

e|------7--10-9-7-7h9p7----7-------------------------------------7--------|
B|-7/10-----------------10----10-7--10p7-----7---------------------10p7---|
G|-----------------------------------------9---9-7-9p7---7-7--9b--------9-|
D|-----------------------------------------------------9------------------|
A|------------------------------------------------------------------------|
E|------------------------------------------------------------------------|

e|----------------------------7---------------------------7---------------|
B|-------------9-----------------10p7------------------------10p7---------|
G|-9p7---7-9-7-9--7-7---7--9b----------9--9p7---7-9-7--9b---------9--9p7--|
D|-----9--------------9-----------------------9---------------------------|
A|------------------------------------------------------------------------|
E|------------------------------------------------------------------------|

e|-------------7---------------------19-20-22-22b--15p12-14p12---12-------|
B|----------------10p7-----------------------------------------14---------|
G|---7-9-7--9b---------9--9p7-----7---------------------------------------|
D|-9---------------------------9------------------------------------------|
A|------------------------------------------------------------------------|
E|------------------------------------------------------------------------|

e|-15p12-14p12-----12-15p12-14p12-----12--15p12-14p12-------12------------|
B|--------------14-----------------14-------------------14----------------|
G|------------------------------------------------------------------------|
D|------------------------------------------------------------------------|
A|------------------------------------------------------------------------|
E|------------------------------------------------------------------------|

e|-15-14-12----12------------------------------7-10p7----9p7----10p7-------|
B|----------15----15---14-12-14-----------------------7------7--------7----|
G|-------------------------------12--12/7--9b------------------------------|
D|-------------------------------------------------------------------------|
A|-------------------------------------------------------------------------|
E|-------------------------------------------------------------------------|

e|-12p7----10p7-----9p7----10p7-----10-9-7------7--------------------------|
B|------7--------7------7--------7-----------10---10--9-7-9----------------|
G|-----------------------------------------------------------7---7---------|
D|-------------------------------------------------------------------------|
A|-------------------------------------------------------------------------|
E|-------------------------------------------------------------------------|

e|-------------------------------------------------------------------------|
B|-0h4h7-0h4h7-0h4h7-0h4h7-0h5h8-0h5h8-0h5h8-0h5h8-0h4h7-0h4h7-0h4h7-0h4h7-|
G|-------------------------------------------------------------------------|
D|-------------------------------------------------------------------------|
A|-------------------------------------------------------------------------|
E|-------------------------------------------------------------------------|

e|-0h4h7-0h4h7-0h4h7-0h4h7-0h5h8-0h5h8-0h5h8-0h5h8-0h4h7-0h4h7-0h4h7-0h4h7-|
B|-------------------------------------------------------------------------|
G|-------------------------------------------------------------------------|
D|-------------------------------------------------------------------------|
A|-------------------------------------------------------------------------|
E|-------------------------------------------------------------------------|

e|-12p8p5-12p8p5-12p8p5-12p8p5-12p8p5-12p8p5-12p8p5-12p8p5-13p8p5-13p8p5---|
B|-------------------------------------------------------------------------|
G|-------------------------------------------------------------------------|
D|-------------------------------------------------------------------------|
A|-------------------------------------------------------------------------|
E|-------------------------------------------------------------------------|

e|-13p8p5-13p8p5-13p8p5-13p8p5-13p8p5-13p8p5-13p9p6-13p9p6-13p9p6-13p9p6---|
B|-------------------------------------------------------------------------|
G|-------------------------------------------------------------------------|
D|-------------------------------------------------------------------------|
A|-------------------------------------------------------------------------|
E|-------------------------------------------------------------------------|

e|-13p9p6-13p9p6-13p9p6-13p9p6-14p10p7-14p10p7-14p10p7-14p10p7-14p10p7-----|
B|-------------------------------------------------------------------------|
G|-------------------------------------------------------------------------|
D|-------------------------------------------------------------------------|
A|-------------------------------------------------------------------------|
E|-------------------------------------------------------------------------|

e|-14p10p7-14p10p7-0h4h7-0h4h7-------0h4h7-------0h4h7-------0h4h7---------|
B|-----------------------------0h4h7-------0h4h7-------0h4h7-------0h4h7---|
G|-------------------------------------------------------------------------|
D|-------------------------------------------------------------------------|
A|-------------------------------------------------------------------------|
E|-------------------------------------------------------------------------|

e|-------------------------------------------------------------------------|
B|-0h4h7-------0h4h7-------0h4h7-------0h4h7-------------------------------|
G|-------0h4h7-------0h4h7-------0h4h7-------0h4h7-------0h4h7-------0h4h7-|
D|-------------------------------------------------0h4h7-------0h4h7-------|
A|-------------------------------------------------------------------------|
E|-------------------------------------------------------------------------|

e|-------------------------------------------------------------------------|
B|----------------------------------------------------------------7-10-10--|
G|-------0h4h7-------0h4h7------------------------------------9------------|
D|-0h4h7-------0h4h7-------0h4h7--0h4h7-------0h4h7-------9/---------------|
A|--------------------------------------0h4h7-------0h4h7------------------|
E|-------------------------------------------------------------------------|

e|-------------------------------------------------------------------------|
B|-12-12-15-12-12-12-17-12-12-12-15-12-12-12-17-12-12-12-15-12-12-17-12-12-|
G|-------------------------------------------------------------------------|
D|-------------------------------------------------------------------------|
A|-------------------------------------------------------------------------|
E|-------------------------------------------------------------------------|

e|-12-15p14p12-12-12-17p12-12-12-15p14p12-12-12-12-12-10-13p11p10-13p11p10-|
B|-------------------------------------------------------------------------|
G|-------------------------------------------------------------------------|
D|-------------------------------------------------------------------------|
A|-------------------------------------------------------------------------|
E|-------------------------------------------------------------------------|

e|------------------------------------------------------------10b-9-7-9p7--|
B|------7-------------7-7-10-10b--10p7---7---------------------------------|
G|-10-9-7---9-7-7--7-------------------9----9-7--9p7----7--7---------------|
D|----------------------------------------------------9--------------------|
A|-------------------------------------------------------------------------|
E|-------------------------------------------------------------------------|

e|-9-7----------------------------------------------------------------------|
B|------10--10p8h10-7h8p7---------------------------------------------------|
G|-------------------------7h9p7--------------------------------------------|
D|--------------------------------------------------------------------------|
A|--------------------------------------------------------------------------|
E|--------------------------------------------------------------------------|

Outtro (6:49)
e|---------------------------------------------------------------------------|
B|---------------------------------------------------------------------------|
G|---------------------------------------------------------------------------|
D|-----9-7--7-7--7-7-7-------------------------------------------------------|
A|-----7-5--5-5--5-5-5--------7p5p0------------------------------------------|
E|-0-0------------------0h5h7------------------------------------------------|
(6:59)
e|-------------------------|
B|-------------------------|
G|-------------------------|
D|---------------------3-2-|
A|-2-2-2-5-2-2-7-2-2-2-1-0-|
E|-0-0-0-3-0-0-5-0-0-0-----|
   . . .   . .   . . .
(7:16)
e|------------|
B|------------|
G|------------|
D|------8---7-|
A|------8---7-|
E|------6---5-|
comments
print report bad tab
10 comments total. Showing first comments.
0 reply
2020vision wrote on November 8 2004, 12:00 am

i got the solo from somewhere else so i dont know if its 100%, but sounds good

0 reply
monkey_xxx2003 wrote on May 8 2005, 12:00 am

excellent

0 reply
nirvana4lf wrote on December 11 2005, 01:11 pm

its ok. needs some work.

I want to post or [tab]
guest
You may want to rate the tab now too:
select rating
Please do not post tabs as comments. Select "correction" instead!