Oops, an error
Loading. Please wait.

Run Tab

659 views 1 this week
1 commentread comment
1 2 3 4 5
excellent!
x 2
Autoscroll
+/-
esc
set tempo
stop
Contributor
Difficulty
intermediate
Hey! There's an official Ultimate Guitar app which is ideal
for learning songs when you're away from computer. Get the app
WARNING: You are trying to view
                                    content from Ultimate-Guitar.com
                                    in an unauthorized application,
                                    which is prohibited.

                                    Please use an official Ultimate
                                    Guitar Tabs application for iPhone,
                                    iPad or Android to access legitimate
                                    chords, guitar, bass, and drum tabs
                                    from Ultimate-Guitar.com database.

                                    Type "ultimate guitar tabs" in Apple
                                    App Store's or Android Market's
                                    search to find the application.
DIAMOND HEAD - Run
From album Death And Progress (1993)

Legend:
/ - shift slide
~ - vibrate
b - bend (full)
pb - prebend + bend (2)
h - hammer on
p - pull off
T - tapping

INTRO

-----------------------|----------------------------|-----------------------|
-------------5----4----|-------------------7--5-----|-------------2---------|
-----------------------|-------------------------6--|------------------4----|
----------6------------|--6----6--------------------|----------2------------|
-----4-----------------|----------------------------|-----0-----------------|
-----------------------|----------------------------|-----------------------|

------------------------------|-----------------------|
-------------------4--0-------|-------------5----4----|
--------------------------4---|-----------------------|
--2----2----------------------|----------6------------|
------------------------------|-----4-----------------|
------------------------------|-----------------------|

----------------------------|------------------------|----------------------|
-------------------7--5-----|--------------2---------|----------------------|
-------------------------6--|-----------4-------4----|----------------------|
--6----6--------------------|--------2---------------|---2~-----------------|
----------------------------|-----0------------------|----------------------|
----------------------------|------------------------|----------------------|

-----------------------|------------------------|------------------------|
-------------5----4----|--7------------7--5-----|--------------2---------|
-----------------------|-------4-------------6--|-----------4-------4----|
----------6------------|------------------------|--------2---------------|
-----4-----------------|------------------------|-----0------------------|
-----------------------|------------------------|------------------------|


RIFF 1

--------------------------|-------------------|-----------------------|-------------------|
-----------------5/4------|-------------------|--------------5/4------|-------------------|
-----------------4/4------|-------------------|--------------4/4------|-------------------|
--------------------------|--4----------------|-----------------------|--2----------------|
--------------------------|--2----------------|-----------------------|--0----------------|
--------------------------|-------------------|-----------------------|-------------------|


RIFF 2 (4x)

------------------------|------------------------|------------------------|
------------------------|------------------------|------------------------|
------------------------|------------------------|------------------------|
------------------------|--6-------6-------4/6---|------------------------|
--------------0--2--x---|--4-------4-------2/4---|--7-------7-------6/7---|
------------------------|------------------------|--5-------5-------4/5---|


RIFF 1 (2x)

--------------------------|-------------------|-----------------------|-------------------|
-----------------5/4------|-------------------|--------------5/4------|-------------------|
-----------------4/4------|-------------------|--------------4/4------|-------------------|
--------------------------|--4----------------|-----------------------|--2----------------|
--------------------------|--2----------------|-----------------------|--0----------------|
--------------------------|-------------------|-----------------------|-------------------|


RIFF 3 (2x)
|-------------------|-------------------|-------------------|-------------------|
|-------------------|-------------------|-------------------|-----------2-------|
|-------------------|-------------------|-------------------|---------------2---|
|--2----------------|--6----------------|--4----------------|-------2-----------|
|--2----------------|--4----------------|--2----------------|---0---------------|
|--0----------------|-------------------|-------------------|-------------------|


RIFF 4

|-------------------|-------------------|-----------------------|
|-------------------|-------------------|-----------------------|
|-------------------|-------------------|-----------------------|
|--6----------------|--2----------------|--6/4------4-----------|
|--4----------------|--0----------------|--4/2------2-----------|
|-------------------|-------------------|-----------------------|


SOLO GUITAR 1

|-------------------|-------------------|-------------------|
|-------------------|-12----------------|-------------------|
|-9~----------------|------10b----------|-10pb--------------|
|-9~----------------|-------------------|-------------------|
|-------------------|-------------------|-------------------|
|-------------------|-------------------|-------------------|


RIFF 2 (4x)

------------------------|------------------------|------------------------|
------------------------|------------------------|------------------------|
------------------------|------------------------|------------------------|
------------------------|--6-------6-------4/6---|------------------------|
--------------0--2--x---|--4-------4-------2/4---|--7-------7-------6/7---|
------------------------|------------------------|--5-------5-------4/5---|


RIFF 1 (2x)

--------------------------|-------------------|-----------------------|-------------------|
-----------------5/4------|-------------------|--------------5/4------|-------------------|
-----------------4/4------|-------------------|--------------4/4------|-------------------|
--------------------------|--4----------------|-----------------------|--2----------------|
--------------------------|--2----------------|-----------------------|--0----------------|
--------------------------|-------------------|-----------------------|-------------------|


RIFF 3 (2x)
|-------------------|-------------------|-------------------|-------------------|
|-------------------|-------------------|-------------------|-----------2-------|
|-------------------|-------------------|-------------------|---------------2---|
|--2----------------|--6----------------|--4----------------|-------2-----------|
|--2----------------|--4----------------|--2----------------|---0---------------|
|--0----------------|-------------------|-------------------|-------------------|


RIFF 5

|-------------------|-------------------|-----------------------|-------------------|
|-------------------|-------------------|-----------------------|-------------------|
|-------------------|-------------------|-----------------------|-------------------|
|--6----------------|--2----------------|--6/4------4-----------|--2------2---------|
|--4----------------|--0----------------|--4/2------2-----------|--0------0---------|
|-------------------|-------------------|-----------------------|-------------------|


BRIDGE (2x)

-------------------|-------------------|-------------------|
--------5----------|-----------5-------|-----------5-------|
-----------4--6----|--------4-------4--|---------------4---|
-----6-------------|-----6-------------|-------6-----------|
--4----------------|--4----------------|---4---------------|
-------------------|-------------------|-------------------|

RIFF 6 (2x)

--------------------------|-------------------|
-----------------5/4------|-------------------|
-----------------4/4------|-------------------|
--------------------------|--4----------------|
--------------------------|--2----------------|
--------------------------|-------------------|


RIFF 7

-------------------|-------------------|-------------------|-------------------|
-------------------|-------------------|-------------------|-------------------|
-------------------|-------------------|-------------------|-------------------|
---6---------------|--4----------------|--6----------------|--6----------------|
---4---------------|--2----------------|--4----------------|--4----------------|
-------------------|-------------------|-------------------|-------------------|


SOLO GUITAR 2

----------------------------------------------------------------------------|
----------------------------------------------------------------------------|
-9-9-9-9-9-9--9h11--11p9--9p8--6--8p6--4--6p4-------4-----4h6--4~-----------|
-----------------------------------------------4h6-----6--------------------|
----------------------------------------------------------------------------|
----------------------------------------------------------------------------|


RIFF 3 (2x)
|-------------------|-------------------|-------------------|-------------------|
|-------------------|-------------------|-------------------|-----------2-------|
|-------------------|-------------------|-------------------|---------------2---|
|--2----------------|--6----------------|--4----------------|-------2-----------|
|--2----------------|--4----------------|--2----------------|---0---------------|
|--0----------------|-------------------|-------------------|-------------------|


SOLO GUITAR 3

---------------------------------------------------|
---------------------------------------------------|
---------------------9--9-9--9-9-9-----9p8-8h9-8---|
---------------------9--9-9--9-9-9--9--------------|
--4--2--0--2--0--2---------------------------------|
---------------------------------------------------|

--------------------------------------------------------------------------------|
--------------------------------------------------------------------------------|
--9--9-9--9-9-9-----9p8--8---11b-11b-11b--9----9----11b-11b-11b--9----9---------|
- 9--9-9--9-9-9--9--------------------------11---------------------11-----------|
--------------------------------------------------------------------------------|
--------------------------------------------------------------------------------|

-----12-----14T-12p-9-16T-12p-9-14T-12p-9-16T-12p-9-14T-12p-9-16T-12p-9-14T-12p-9-16T-12p-9-14T-12p-9~-|
--/9----9----------------------------------------------------------------------------------------------|
-------------------------------------------------------------------------------------------------------|
-------------------------------------------------------------------------------------------------------|
-------------------------------------------------------------------------------------------------------|
-------------------------------------------------------------------------------------------------------|
comments
We did not receive enough feedback on this tab! Please rate:
print report bad tab
1 2 3 4 5
1 comment total.
0 reply
Nate Collison wrote on March 21 2009, 06:35 pm

Nice solo man!

I want to post or [tab]
guest
You may want to rate the tab now too:
select rating
Please do not post tabs as comments. Select "correction" instead!