Oops, an error
Loading. Please wait.

Dont Believe In Love Tab

by Dido
ver2
ver2

Whole song

More versions @911Tabs.com
687 views 1 this week
no commentswrite comment
1 2 3 4 5
poor
x 1
add to favorites launch autoscroll
font size
0
reset
Autoscroll
+/-
esc
set tempo
stop
Difficulty
novice
WARNING: You are trying to view
                                    content from Ultimate-Guitar.com
                                    in an unauthorized application,
                                    which is prohibited.

                                    Please use an official Ultimate
                                    Guitar Tabs application for iPhone,
                                    iPad or Android to access legitimate
                                    chords, guitar, bass, and drum tabs
                                    from Ultimate-Guitar.com database.

                                    Type "ultimate guitar tabs" in Apple
                                    App Store's or Android Market's
                                    search to find the application.
               Don't believe in love - Dido
Guitar Part                             

  
-------------------|-------------------|---------------------------|
-------------------|-------------------|---------------------------|
-------------------|-------------------|-------5-----5----5----L---|
-------------------|-------------------|-------3-----3----3----L---|
-------------------|-------------------|-------7-----7----7----L---|
-------------------|-------------------|---------------------------|


  
------------------------------|------------------------------|
-------0-----0------0----L----|------------------------------|
-------0-----0------0---------|-------2-----2------2----L----|
-------2-----2------2---------|-------3-----3------3---------|
------------------------------|-------5-----5------5---------|
------------------------------|------------------------------|

 
------------------------------|---------------------------|
------------------------------|---------------------------|
-------2-----2------2----L----|-------5-----5----5----L---|
-------3-----3------3---------|-------3-----3----3----L---|
-------5-----5------5---------|-------7-----7----7----L---|
------------------------------|---------------------------|


  Q    S. S. T E  T Q    T S.    Q    S. S. T E  T Q    T S.  
------------------------------|------------------------------|
-------0-----0------0----L----|------------------------------|
-------0-----0------0---------|-------2-----2------2----L----|
-------2-----2------2---------|-------3-----3------3---------|
------------------------------|-------5-----5------5---------|
------------------------------|------------------------------|


  Q    S. S. T E  T Q    T S.    W                   W                 
------------------------------|-------------------|-------------------|
------------------------------|-------------------|--0----------------|
-------2-----2------2----L----|--5----------------|--0----------------|
-------3-----3------3---------|--3----------------|--2----------------|
-------5-----5------5---------|--7----------------|-------------------|
------------------------------|-------------------|-------------------|


  H.           E.  T T    W                   W                 
-----------------------|-------------------|-------------------|
-----------------------|-------------------|--1----------------|
--2------------L---L---|-------------------|--2----------------|
--3------------L---L---|-------------------|--2----------------|
--5------------L---L---|-------------------|-------------------|
-----------------------|-------------------|-------------------|


  W                   W                   W                 
-------------------|-------------------|-------------------|
--3----------------|-------------------|-------------------|
--4----------------|--2----------------|-------------------|
--5----------------|--3----------------|-------------------|
-------------------|-------------------|-------------------|
-------------------|-------------------|-------------------|


  H        H           W                   H        H         
--------------------|-------------------|--------------------|
--1--------0--------|-------------------|--1--------0--------|
--2--------0--------|--2----------------|--2--------0--------|
--3--------0--------|--2----------------|--3--------0--------|
--5--------7--------|--0----------------|--5--------7--------|
--------------------|-------------------|--------------------|


  W                   H        H           W                 
-------------------|--------------------|-------------------|
-------------------|--1--------0--------|-------------------|
--2----------------|--2--------0--------|--2----------------|
--2----------------|--3--------0--------|--2----------------|
--0----------------|--5--------7--------|--0----------------|
-------------------|--------------------|-------------------|


  H        H           H.           E.  T T    W                 
--------------------|-----------------------|-------------------|
--1--------0--------|-----------------------|-------------------|
--2--------0--------|--2------------L---L---|-------------------|
--3--------0--------|--2------------L---L---|-------------------|
--5--------7--------|--0------------L---L---|-------------------|
--------------------|-----------------------|-------------------|


  Q    S. S. S E  Q    S S    Q    S. S. T E  T Q    T S.  
---------------------------|------------------------------|
---------------------------|-------0-----0------0----L----|
-------5-----5----5----L---|-------0-----0------0---------|
-------3-----3----3----L---|-------2-----2------2---------|
-------7-----7----7----L---|------------------------------|
---------------------------|------------------------------|


  Q    S. S. T E  T Q    T S.    Q    S. S. T E  T Q    T S.  
------------------------------|------------------------------|
------------------------------|------------------------------|
-------2-----2------2----L----|-------2-----2------2----L----|
-------3-----3------3---------|-------3-----3------3---------|
-------5-----5------5---------|-------5-----5------5---------|
------------------------------|------------------------------|


  Q    S. S. S E  Q    S S    Q    S. S. T E  T Q    T S.  
---------------------------|------------------------------|
---------------------------|-------0-----0------0----L----|
-------5-----5----5----L---|-------0-----0------0---------|
-------3-----3----3----L---|-------2-----2------2---------|
-------7-----7----7----L---|------------------------------|
---------------------------|------------------------------|


  Q    S. S. T E  T Q    T S.    Q    S. S. T E  T Q    T S.  
------------------------------|------------------------------|
------------------------------|------------------------------|
-------2-----2------2----L----|-------2-----2------2----L----|
-------3-----3------3---------|-------3-----3------3---------|
-------5-----5------5---------|-------5-----5------5---------|
------------------------------|------------------------------|


  W                   W                   H.           E.  T T  
-------------------|-------------------|-----------------------|
--1----------------|--0----------------|-----------------------|
--2----------------|--0----------------|--2------------L---L---|
--2----------------|--2----------------|--3------------L---L---|
-------------------|-------------------|--5------------L---L---|
-------------------|-------------------|-----------------------|


  H.           E.  T T    W                   W                 
-----------------------|-------------------|-------------------|
-----------------------|--1----------------|--0----------------|
--2------------L---L---|--2----------------|--0----------------|
--3------------L---L---|--2----------------|--2----------------|
--5------------L---L---|-------------------|-------------------|
-----------------------|-------------------|-------------------|


  H.           E.  T T    W                   H        H         
-----------------------|-------------------|--------------------|
-----------------------|-------------------|--1--------0--------|
--2------------L---L---|-------------------|--2--------0--------|
--3------------L---L---|-------------------|--3--------0--------|
--5------------L---L---|-------------------|--5--------7--------|
-----------------------|-------------------|--------------------|


  W                   H        H           W                 
-------------------|--------------------|-------------------|
-------------------|--1--------0--------|-------------------|
--2----------------|--2--------0--------|--2----------------|
--2----------------|--3--------0--------|--2----------------|
--0----------------|--5--------7--------|--0----------------|
-------------------|--------------------|-------------------|


  H        H           W                   H        H         
--------------------|-------------------|--------------------|
--1--------0--------|-------------------|--1--------0--------|
--2--------0--------|--2----------------|--2--------0--------|
--3--------0--------|--2----------------|--3--------0--------|
--5--------7--------|--0----------------|--5--------7--------|
--------------------|-------------------|--------------------|


  H.           E.  T T     H.           Q        H.           E.  S  
-----------------------|--10------------8----|--10------------L-----|
-----------------------|--10------------6----|----------------------|
--2------------L---L---|--15-----------------|--10------------L-----|
--2------------L---L---|--15------------7----|---8------------L-----|
--0------------L---L---|--10-----------------|----------------------|
-----------------------|---------------------|----------------------|


   H.           Q        H         H            H.           Q     
--10------------8----|--10---------8--------|--10------------8----|
--10------------6----|--11---------8--------|--11------------6----|
--15-----------------|--10------------------|--14-----------------|
--15------------7----|---8--------10--------|--15------------7----|
--10-----------------|----------------------|--10-----------------|
---------------------|----------------------|---------------------|


   H         H           H        H           W                 
--10--------12--------|--------------------|-------------------|
----------------------|--1--------0--------|-------------------|
--10--------12--------|--2--------0--------|--2----------------|
---8--------10--------|--3--------0--------|--2----------------|
----------------------|--5--------7--------|--0----------------|
----------------------|--------------------|-------------------|


  H        H           W                   H        H         
--------------------|-------------------|--------------------|
--1--------0--------|-------------------|--1--------0--------|
--2--------0--------|--2----------------|--2--------0--------|
--3--------0--------|--2----------------|--3--------0--------|
--5--------7--------|--0----------------|--5--------7--------|
--------------------|-------------------|--------------------|


  W                   H        H           H.           E.  T T  
-------------------|--------------------|-----------------------|
-------------------|--1--------0--------|-----------------------|
--2----------------|--2--------0--------|--2------------L---L---|
--2----------------|--3--------0--------|--2------------L---L---|
--0----------------|--5--------7--------|--0------------L---L---|
-------------------|--------------------|-----------------------|


  H        H           W                   H        H         
--------------------|-------------------|--------------------|
--1--------0--------|-------------------|--1--------0--------|
--2--------0--------|--2----------------|--2--------0--------|
--3--------0--------|--2----------------|--3--------0--------|
--5--------7--------|--0----------------|--5--------7--------|
--------------------|-------------------|--------------------|


  W                   H        H           W                 
-------------------|--------------------|-------------------|
-------------------|--1--------0--------|-------------------|
--2----------------|--2--------0--------|--2----------------|
--2----------------|--3--------0--------|--2----------------|
--0----------------|--5--------7--------|--0----------------|
-------------------|--------------------|-------------------|


  H        H           H.           E.  T T    H        H         
--------------------|-----------------------|--------------------|
--1--------0--------|-----------------------|--1--------0--------|
--2--------0--------|--2------------L---L---|--2--------0--------|
--3--------0--------|--2------------L---L---|--3--------0--------|
--5--------7--------|--0------------L---L---|--5--------7--------|
--------------------|-----------------------|--------------------|


  W                   H        H           W                 
-------------------|--------------------|-------------------|
-------------------|--1--------0--------|-------------------|
--2----------------|--2--------0--------|--2----------------|
--2----------------|--3--------0--------|--2----------------|
--3----------------|--5--------7--------|--3----------------|
-------------------|--------------------|-------------------|


  H        H           W                   H        H         
--------------------|-------------------|--------------------|
--1--------0--------|-------------------|--1--------0--------|
--2--------0--------|--2----------------|--2--------0--------|
--3--------0--------|--2----------------|--3--------0--------|
--5--------7--------|--3----------------|--5--------7--------|
--------------------|-------------------|--------------------|


  W                   W                   W                 
-------------------|-------------------|-------------------|
-------------------|-------------------|-------------------|
-------------------|-------------------|-------------------|
-------------------|-------------------|-------------------|
-------------------|-------------------|-------------------|
-------------------|-------------------|-------------------|


  W                  
-------------------||
-------------------||
-------------------||
-------------------||
-------------------||
-------------------||


comments
We did not receive enough feedback on this tab! Please rate:
print report bad tab
1 2 3 4 5
I want to post or [tab]
guest
You may want to rate the tab now too:
select rating
Please do not post tabs as comments. Select "correction" instead!