Oops, an error
Loading. Please wait.

Cpt Metal Tab

ver1
ver1

Whole song

Interactive

More versions @911Tabs.com
4,913 views 12 this week
1 commentread comment
1 2 3 4 5
excellent!
x 3
Autoscroll
+/-
esc
set tempo
stop
Contributor
Difficulty
intermediate
Hey! There's an official Ultimate Guitar app which is ideal
for learning songs when you're away from computer. Get the app
WARNING: You are trying to view
                                    content from Ultimate-Guitar.com
                                    in an unauthorized application,
                                    which is prohibited.

                                    Please use an official Ultimate
                                    Guitar Tabs application for iPhone,
                                    iPad or Android to access legitimate
                                    chords, guitar, bass, and drum tabs
                                    from Ultimate-Guitar.com database.

                                    Type "ultimate guitar tabs" in Apple
                                    App Store's or Android Market's
                                    search to find the application.
Okay, da sie noch niemand hochgeladen hat, hab ich mir gedacht mach ich mal die
Tabs zu Cpt. Metal vom neuen "Die Ärzte" - Album "auch".
Hab mir Mühe gegeben alles halbwegs hinzubekommen.

Intro

  PM PM        PM PM        PM PM       PM PM
  S  S   S   S S  S   S   S S  S   S  S S  S
E||---------------------------------------------|
B||---------------------------------------------|
G||--------11s-12-------11s-12-------11s-7------|
D||---------------------------------------------|
A||--7--7---9s-10-7--7---9s-10-7--7---9s-5-7--7-|
E||--0--0---------0--0---------0--0--------0--0-|

Intro B Rhythmus

  W                   W
--0----------------|-------------------|
--0----------------|-------------------|
--x----------------|--4----------------|
--2----------------|--4----------------|
--2----------------|--2----------------|
--0----------------|-------------------|


  W                   H        H
--0----------------|--------------------|
--1----------------|--------------------|
--x----------------|--------------------|
--2----------------|--5--------4--------|
--3----------------|--5--------4--------|
-------------------|--3--------2--------|


  W                   W
--0----------------|-------------------|
--0----------------|-------------------|
--x----------------|--4----------------|
--2----------------|--4----------------|
--2----------------|--2----------------|
--0----------------|-------------------|


  W                   H        H
--0----------------|--------------------|
--1----------------|--------------------|
--x----------------|--------------------|
--2----------------|--5--------4--------|
--3----------------|--5--------4--------|
-------------------|--3--------2--------|

Intro B Lead

|--------------------|
|-----------8--------|
|--9-----------------|
|--------------------|
|--------------------|
|--------------------|


   H        Q     E   S  S
---------------------------|
--12--------L-----L--15-12-|
---------------------------|
---------------------------|
---------------------------|
---------------------------|


   H        Q     E   S  S
---------------------------|
--13--------L-----L--15-12-|
---------------------------|
---------------------------|
---------------------------|
---------------------------|


   E    S  E    S  E    E   E  E   T  T  T  T
----------------------------------------------|
--15b---L-15b---L-15b--15--12-----13-12-10----|L
----------------------------------------------|
----------------------------------------------|
----------------------------------------------|
----------------------------------------------|


   E   S  S Q     Q    E   S  S
--------------------------------|
--10--12-10-8-----L----L--------|
--------------------------11-12-|
--------------------------------|
--------------------------------|
--------------------------------|


   H         Q     E   E
--------------------------|
--10--------10b----8------|
----------------------11--|
--------------------------|
--------------------------|
--------------------------|


    Q    E   T  T  S H
------------------------------|
------------------------------|
--/12----L--11-12-11-9--------|
------------------------------|
------------------------------|
------------------------------|


  |--3--|  |--3--|  |--3--|  |--3--|  |--3--|
  S  S  S  S  S  S  S  S  S  S  S  S  S  S  S
----------------------------------------------|
----------------------------------13-12-13-15-|
--9-11-12-11-12-14-12-14-16-14-16-------------|
----------------------------------------------|
----------------------------------------------|
----------------------------------------------|


   \1/
   Q    Q    Q    Q
-----------------------|-------|-------|
--17-------------------|-------|-------|
-----------------------|-------|-------|
-----------------------|-------|-------|
-----------------------|-------|-------|
-----------------------|-------|-------|

Strophe 1 Rhythmus

     PM PM PM PM PM PM PM PM PM PM PM PM PM P
  E  S  S  S  S  S  S  S  S  S  S  S  S  S  S
----------------------------------------------|
----------------------------------------------|
----------------------------------------------|
--2-------------------------------------------|
--2--2--2--2--2--2--2--2--2--2--2--2--2--2--2-|
--0--0--0--0--0--0--0--0--0--0--0--0--0--0--0-|


  PM PM PM PM PM PM PM PM PM PM PM PM PM PM
  S  S  S  S  S  S  S  S  S  S  S  S  S  S  S
---------------------------------------------|
---------------------------------------------|
-----------------------------------------7---|
-----------------------------------------7---|
--2--2--2--2--2--2--2--2--2--2--2--2--2--5---|
--0--0--0--0--0--0--0--0--0--0--0--0--0------|


     PM PM PM PM PM PM PM PM PM PM PM PM PM P
  E  S  S  S  S  S  S  S  S  S  S  S  S  S  S
----------------------------------------------|
----------------------------------------------|
--L-------------------------------------------|
--L-------------------------------------------|
--L--7--7--7--7--7--7--7--7--7--7--7--7--7--7-|
-----0--0--0--0--0--0--0--0--0--0--0--0--0--0-|


  E  E  S S E  E  E  S S E
----------------------------|
----------------------------|
----------------------------|
----------------------------|
--4--4--4-L-4--5--5--5-L-5--|
--2--2--2-L-2--3--3--3-L-3--|


     PM PM PM PM PM PM PM PM PM PM PM PM PM P
  E  S  S  S  S  S  S  S  S  S  S  S  S  S  S
----------------------------------------------|
----------------------------------------------|
----------------------------------------------|
--2-------------------------------------------|
--2--2--2--2--2--2--2--2--2--2--2--2--2--2--2-|
--0--0--0--0--0--0--0--0--0--0--0--0--0--0--0-|


  PM PM PM PM PM PM PM PM PM PM PM PM PM PM
  S  S  S  S  S  S  S  S  S  S  S  S  S  S  S
---------------------------------------------|
---------------------------------------------|
-----------------------------------------7---|
-----------------------------------------7---|
--2--2--2--2--2--2--2--2--2--2--2--2--2--5---|
--0--0--0--0--0--0--0--0--0--0--0--0--0------|


     PM PM PM PM PM PM PM PM PM PM PM PM PM P
  E  S  S  S  S  S  S  S  S  S  S  S  S  S  S
----------------------------------------------|
----------------------------------------------|
--L-------------------------------------------|
--L-------------------------------------------|
--L--7--7--7--7--7--7--7--7--7--7--7--7--7--7-|
-----0--0--0--0--0--0--0--0--0--0--0--0--0--0-|


  E  E  S S E  E  E  S S E
----------------------------|
----------------------------|
----------------------------|
----------------------------|
--4--4--4-L-4--5--5--5-L-5--|
--2--2--2-L-2--3--3--3-L-3--|

Strophe 1 B Rhythmus

 S S S S S S S S S S S S S S S S
----------------------------------|
----------------------------------|
--4-4-4-4-4-4-4-4-4-4-4-4-2-2-4-4-|
--4-4-4-4-4-4-4-4-4-4-4-4-2-2-4-4-|
--2-2-2-2-2-2-2-2-2-2-2-2-0-0-2-2-|
----------------------------------|


  S S S S S S S S S S S S E  E
--------------------------------|
--------------------------------|
--5-5-5-5-5-5-5-5-5-5-5-5-7--9--|
--5-5-5-5-5-5-5-5-5-5-5-5-7--9--|
--3-3-3-3-3-3-3-3-3-3-3-3-5--7--|
--------------------------------|


  S S S S S S S S S S S S S S S S
----------------------------------|
----------------------------------|
--4-4-4-4-4-4-4-4-4-4-4-4-2-2-4-4-|
--4-4-4-4-4-4-4-4-4-4-4-4-2-2-4-4-|
--2-2-2-2-2-2-2-2-2-2-2-2-0-0-2-2-|
----------------------------------|


  S S S S S S S S S S S S S S S S
----------------------------------|
----------------------------------|
--7-7-7-7-7-7-7-7-7-7-x-4-x-5-x-7-|
--7-7-7-7-7-7-7-7-7-7-x-4-x-5-x-7-|
--5-5-5-5-5-5-5-5-5-5-x-2-x-3-x-5-|
----------------------------------|


  S S S S S S S S S S S S S S S S
----------------------------------|
----------------------------------|
--4-4-4-4-4-4-4-4-4-4-4-4-2-2-4-4-|
--4-4-4-4-4-4-4-4-4-4-4-4-2-2-4-4-|
--2-2-2-2-2-2-2-2-2-2-2-2-0-0-2-2-|
----------------------------------|


  S S S S S S S S S S S S E  E
--------------------------------|
--------------------------------|
--5-5-5-5-5-5-5-5-5-5-5-5-7--9--|
--5-5-5-5-5-5-5-5-5-5-5-5-7--9--|
--3-3-3-3-3-3-3-3-3-3-3-3-5--7--|
--------------------------------|


  S S S S S S S S S S S S S S S S
----------------------------------|
----------------------------------|
--4-4-4-4-4-4-4-4-4-4-4-4-2-2-4-4-|
--4-4-4-4-4-4-4-4-4-4-4-4-2-2-4-4-|
--2-2-2-2-2-2-2-2-2-2-2-2-0-0-2-2-|
----------------------------------|


  S S S S S S S S S S S S S S S S
----------------------------------|
----------------------------------|
--7-7-7-7-7-7-7-7-9-9-9-9---------|
--7-7-7-7-7-7-7-7-9-9-9-9-5-5-5-5-|
--5-5-5-5-5-5-5-5-7-7-7-7-5-5-5-5-|
--------------------------3-3-3-3-|

Refrain Rhythmus

  S E S E S S S E  S E  S S S S
--------------------------------|
--------------------------------|
--9---9---9-9-9-9--9-9--9-9-9-9-|
--9---9---9-9-9-9--9-9--9-9-9-9-|
--7---7---7-7-7-7--7-7--7-7-7-7-|
--0---0---0-0-0-0--0-0--0-0-0-0-|


                     PM PM PM PM PM PM
  S E S E S S S S    E  E  E  E  E  E
------------------|--------------------|
------------------|--------------------|
------------------|--------------------|
--5---5---5-5-5-5-|--------------------|
--5---5---5-5-5-5-|--7--6--5--4--3--2--|
--3---3---3-3-3-3-|--5--4--3--2--1--0--|


  S E S E S S S E  S E  S S S S
--------------------------------|
--------------------------------|
--9---9---9-9-9-9--9-9--9-9-9-9-|
--9---9---9-9-9-9--9-9--9-9-9-9-|
--7---7---7-7-7-7--7-7--7-7-7-7-|
--0---0---0-0-0-0--0-0--0-0-0-0-|


  S E S E S S S S    S S S S E S S E
------------------|------------------|
------------------|------------------|
------------------|--3-3-3-2-----3---|
--5---5---5-5-5-5-|--3-3-3-2-----3---|
--5---5---5-5-5-5-|--1-1-1-0-----1---|
--3---3---3-3-3-3-|------------------|


 S E S E S S S E  S E  S S S S
--------------------------------|
--------------------------------|
--9---9---9-9-9-9--9-9--9-9-9-9-|
--9---9---9-9-9-9--9-9--9-9-9-9-|
--7---7---7-7-7-7--7-7--7-7-7-7-|
--0---0---0-0-0-0--0-0--0-0-0-0-|


                     PM PM PM PM PM PM
  S E S E S S S S    E  E  E  E  E  E
------------------|--------------------|
------------------|--------------------|
------------------|--------------------|
--5---5---5-5-5-5-|--------------------|
--5---5---5-5-5-5-|--7--6--5--4--3--2--|
--3---3---3-3-3-3-|--5--4--3--2--1--0--|


  E  E  S S S E  S E  S S S S
------------------------------|
------------------------------|
--4--4--4-4-4-4--4-4--4-4-2-4-|
--4--4--4-4-4-4--4-4--4-4-2-4-|
--2--2--2-2-2-2--2-2--2-2-0-2-|
------------------------------|


  E  E  S S S S    E  E  E  E
----------------|--------------|
----------------|--------------|
--5--5--5-5-5-5-|--7-----7-----|
--5--5--5-5-5-5-|--7-----7-----|
--3--3--3-3-3-3-|--5-----5-----|
----------------|--------------|

Intro A Gleich

Strophe 2 Gleich

Strophe 2 B Gleich

Refrain Gleich

Gitarrensolo Rhythmus

PM PM        PM PM        PM PM       PM PM
  S  S   S   S S  S   S   S S  S   S  S S  S
---------------------------------------------|
---------------------------------------------|
--------11s-12-------11s-12-------11s-7------|
---------------------------------------------|
--7--7---9s-10-7--7---9s-10-7--7---9s-5-7--7-|
--0--0---------0--0---------0--0--------0--0-|


  H        E  E  E  E     W
--0--------------------|--0----------------|
--0--------------------|--0----------------|
--x--------------------|--x----------------|
--2--------2-----------|--2----------------|
--2--------2-----------|--2----------------|
--0--------0-----------|--0----------------|


  W                   W
-------------------|-------------------|
--3----------------|-------------------|
--2----------------|--4----------------|
--0----------------|--4----------------|
--0----------------|--2----------------|
-------------------|-------------------|


  H        H           W
--0-----------------|--0----------------|
--1--------3--------|--0----------------|
--x--------2--------|--x----------------|
--2--------0--------|--2----------------|
--3--------0--------|--2----------------|
--------------------|--0----------------|


  W                   W
-------------------|-------------------|
--3----------------|-------------------|
--2----------------|--4----------------|
--0----------------|--4----------------|
--0----------------|--2----------------|
-------------------|-------------------|


  H        H           W
--0-----------------|--0----------------|
--1--------3--------|--0----------------|
--x--------2--------|--x----------------|
--2--------0--------|--2----------------|
--3--------0--------|--2----------------|
--------------------|--0----------------|


  W                   W
-------------------|-------------------|
--3----------------|-------------------|
--2----------------|--4----------------|
--0----------------|--4----------------|
--0----------------|--2----------------|
-------------------|-------------------|


  H        H           W
--0-----------------|-------------------|
--1--------3--------|-------------------|
--x--------2--------|--9----------------|
--2--------0--------|--9----------------|
--3--------0--------|--7----------------|
--------------------|--0----------------|


  W
-------------------|
-------------------|
-------------------|
--2----------------|
--2----------------|
--0----------------|


Gitarrensolo Lead


            |-3-| |-3-| |-3-| |--3-|
  Q    Q    S S S S S S S S S S S  S
-------------------------------------|
------------0-3-5-0-5-7-0-7-8-0-8-10-|
-------------------------------------|
-------------------------------------|
-------------------------------------|
-------------------------------------|


   H          H
-------------12~--------|
--12~-------------------|
------------------------|
------------------------|
------------------------|
------------------------|


   H          H
--10~-------------------|
-------------10~--------|
------------------------|
------------------------|
------------------------|
------------------------|


   H          H
------------------------|
-------------12~--------|
--11~-------------------|
------------------------|
------------------------|
------------------------|


      E.   E.   E      E.   E.  E
-----------------------------------|
--12g13---12---10--10g12---10---8--|
-----------------------------------|
-----------------------------------|
-----------------------------------|
-----------------------------------|


  |-3-| |-3-| |-3-| |-3-| |-3-| |-3-| |-3-| |
  S S S S S S S S S S S S S S S S S S S S S S
----------------------------------------------|
--8-5-0-8-5-0-8-5-0-8-5-0-8-5-0-8-5-0-8-5-0-8-|
----------------------------------------------|
----------------------------------------------|
----------------------------------------------|
----------------------------------------------|


   |-3-|  |-3-|  |-3-|  |-3-|  |-3-|  |-3-|
   S S S  S S S  S S S  S S S  S S S  S S S
----------------------------------------------|
--10-5-0-10-5-0-10-5-0-10-5-0-10-5-0-10-5-0-1-|
----------------------------------------------|
----------------------------------------------|
----------------------------------------------|
----------------------------------------------|


  |-3-| |-3-| |-3-| |-3-| |-3-| |-3-| |-3-| |
  S S S S S S S S S S S S S S S S S S S S S S
----------------------------------------------|
--7-4-0-7-4-0-7-4-0-7-4-0-7-4-0-7-4-0-7-4-0-7-|
----------------------------------------------|
----------------------------------------------|
----------------------------------------------|
----------------------------------------------|


  T T T T T T T T T T T T T T T T  T  T  T  T
----------------------------------------------|
--7-7-7-7-5-5-7-7-8-8-8-8-7-7-8-8-10-10-10-10-|
----------------------------------------------|
----------------------------------------------|
----------------------------------------------|
----------------------------------------------|


   T  T  T  T  T  T  T  T  T  T  T  T  T  T
--15-14-12-12-14-14-12-12-15-14-12-12-14-14-1-|
----------------------------------------------|
----------------------------------------------|
----------------------------------------------|
----------------------------------------------|
----------------------------------------------|


   T  T  T  T  T  T  T  T  T  T  T  T  T  T
--17-15-14-14-15-15-14-14-17-15-14-14-15-15-1-|
----------------------------------------------|
----------------------------------------------|
----------------------------------------------|
----------------------------------------------|
----------------------------------------------|


   T  T  T  T  T  T  T  T  T  T  T  T  T  T
--19-17-14-14-17-15-14-14-19-17-14-14-17-15-1-|
----------------------------------------------|
----------------------------------------------|
----------------------------------------------|
----------------------------------------------|
----------------------------------------------|


   T  T  T  T  T  T  T  T  T  T  T  T  T  T
--20-19-17-17-20-19-17-17-20-19-17-17-20-19-1-|
----------------------------------------------|
----------------------------------------------|
----------------------------------------------|
----------------------------------------------|
----------------------------------------------|


     W
--<>22b~----------------|
------------------------|
------------------------|
------------------------|
------------------------|
------------------------|


   \1/
   W
--17----------------|-------------------|
--------------------|-------------------|
--------------------|-------------------|
--------------------|-------------------|
--------------------|-------------------|
--------------------|-------------------|


Bridge Rhythmus

  PM PM    PM PM PM    PM PM
  E  E  E  E  E  E  E  S  S
-----------------------------|
-----------------------------|
-----------------------------|
-----------------------------|
--4--4--4--4--4--4--4--4--4--|
--2--2--2--2--2--2--2--2--2--|


  PM PM PM    PM PM PM
  S  S  E  E  E  E  E  E  E
-----------------------------|
-----------------------------|
-----------------------------|
-----------------------------|
--4--4--4--4--4--4--4--4--5--|
--2--2--2--2--2--2--2--2--3--|


  PM PM    PM PM PM    PM PM
  E  E  E  E  E  E  E  S  S
-----------------------------|
-----------------------------|
-----------------------------|
-----------------------------|
--4--4--4--4--4--4--4--4--4--|
--2--2--2--2--2--2--2--2--2--|


  PM PM PM    PM PM PM
  S  S  E  E  E  E  E  E  E
-----------------------------|
-----------------------------|
-----------------------------|
-----------------------------|
--4--4--4--4--4--4--4--4--5--|
--2--2--2--2--2--2--2--2--3--|


  PM PM    PM PM PM    PM PM
  E  E  E  E  E  E  E  S  S
-----------------------------|
-----------------------------|
-----------------------------|
-----------------------------|
--4--4--4--4--4--4--4--4--4--|
--2--2--2--2--2--2--2--2--2--|


  PM PM PM    PM PM PM
  S  S  E  E  E  E  E  E  E
-----------------------------|
-----------------------------|
-----------------------------|
-----------------------------|
--4--4--4--4--4--5--5--5--7--|
--2--2--2--2--2--3--3--3--5--|


  PM PM    PM PM PM    PM PM
  E  E  E  E  E  E  E  S  S
-----------------------------|
-----------------------------|
-----------------------------|
-----------------------------|
--4--4--4--4--4--4--4--4--4--|
--2--2--2--2--2--2--2--2--2--|


  PM PM PM    PM PM PM PM PM
  S  S  E  E  E  E  E  E  E
-----------------------------|
-----------------------------|
-----------------------------|
-----------------------------|
--4--4--4--4--4--7--7--5--7--|
--2--2--2--2--2--5--5--3--5--|


  PM PM    PM PM PM    PM PM
  E  E  E  E  E  E  E  S  S
-----------------------------|
-----------------------------|
-----------------------------|
-----------------------------|
--4--4--4--4--4--4--4--4--4--|
--2--2--2--2--2--2--2--2--2--|


  PM PM PM    PM PM PM
  S  S  E  E  E  E  E  E  E
-----------------------------|
-----------------------------|
-----------------------------|
-----------------------------|
--4--4--4--4--4--5--5--5--7--|
--2--2--2--2--2--3--3--3--5--|


  PM PM    PM PM PM    PM PM
  E  E  E  E  E  E  E  S  S
-----------------------------|
-----------------------------|
-----------------------------|
-----------------------------|
--4--4--4--4--4--4--4--4--4--|
--2--2--2--2--2--2--2--2--2--|


  PM PM PM    PM PM PM PM PM
  S  S  E  E  E  E  E  E  E
-----------------------------|
-----------------------------|
-----------------------------|
-----------------------------|
--4--4--4--4--4--7--7--5--7--|
--2--2--2--2--2--5--5--3--5--|


Bridge Lead

 E  E   E  T T S Q     E  S S
-------------------------------|
--------10--8-7-5-7~----L--5-7-|
-------------------------------|
-------------------------------|
-------------------------------|
-------------------------------|


  H         E  S S  E  E
--------------------------|
--8~-----------5-8-10--8--|
--------------------------|
--------------------------|
--------------------------|
--------------------------|


  T T S E  H         E  S S
----------------------------|
--7-8-7-5--7~--------L--5-7-|
----------------------------|
----------------------------|
----------------------------|
----------------------------|


  H        Q     Q
-----------7----10----|
--8-------------------|
----------------------|
----------------------|
----------------------|
----------------------|

Gitarrensolo 2 Rhythmus

 W                   W
--0----------------|-------------------|
--0----------------|--3----------------|
--x----------------|--2----------------|
--2----------------|--0----------------|
--2----------------|--0----------------|
--0----------------|-------------------|


  W                   W
--0----------------|-------------------|
--1----------------|-------------------|
--x----------------|--4----------------|
--2----------------|--4----------------|
--3----------------|--2----------------|
-------------------|-------------------|


  W                   W
--0----------------|-------------------|
--0----------------|--3----------------|
--x----------------|--2----------------|
--2----------------|--0----------------|
--2----------------|--0----------------|
--0----------------|-------------------|


  W                   W
--0----------------|-------------------|
--1----------------|-------------------|
--x----------------|--4----------------|
--2----------------|--4----------------|
--3----------------|--2----------------|
-------------------|-------------------|


Gitarrensolo 2 Lead

   E    S  E    S  E    S  S  S   S  E    S
-------12------12------12-12-----12------12---|
--15b-----15b-----15b--------15b----15b-----1-|
----------------------------------------------|
----------------------------------------------|
----------------------------------------------|
----------------------------------------------|


   W
   Q      S  S  S  S  Q      E    E
--10b-----L-10-12-10-----------------|
---------------------12~----12s--10--|
-------------------------------------|
-------------------------------------|
-------------------------------------|
-------------------------------------|


   S  S  S S S  S  S  S  S  S  S S S S S S
--10--L--L--------------10-----L-----------|
-----10-12-8-L-10-10-12--L-10-12-8---L-----|
-------------9---------------------9-7-9-7-|
-------------------------------------------|
-------------------------------------------|
-------------------------------------------|


   W                  W
   H         S  S S S Q
---------------------------|
--12--------12-10-8--------|
--------------------9-9----|
---------------------------|
---------------------------|
---------------------------|


     W
     Q     H         E   S  S
--<>12-----L---------L--12-10-|
------------------------------|
------------------------------|
------------------------------|
------------------------------|
------------------------------|


     W                 PH
     Q    E   S   S    H
--<>17----L--17s-12-<>12~--------|
---------------------------------|
---------------------------------|
---------------------------------|
---------------------------------|
---------------------------------|


   T  T  T  T  T  T  T  T  T  T  T  T  T  T
--17-15-12----15-12-------12------------------|
-----------15-------15-13----15-13-12-15-13-1-|
----------------------------------------------|
----------------------------------------------|
----------------------------------------------|
----------------------------------------------|


   H         Q    Q
--12\--------L----L----|-------|-------|
--12\--------L----L----|-------|-------|
-----------------------|-------|-------|
-----------------------|-------|-------|
-----------------------|-------|-------|
-----------------------|-------|-------|


Letzter Refrain + Outro Rhythmus



  S S S S S S S E  S E  S S S S
--------------------------------|
--------------------------------|
--9-L-9-L-9-9-9-9--9-9--9-9-9-9-|
--9-L-9-L-9-9-9-9--9-9--9-9-9-9-|
--7-L-7-L-7-7-7-7--7-7--7-7-7-7-|
--0-L-0-L-0-0-0-0--0-0--0-0-0-0-|


  S S S S S S S S
------------------|
------------------|
------------------|
--5-L-5-L-5-5-5-5-|
--5-L-5-L-5-5-5-5-|
--3-L-3-L-3-3-3-3-|


  S S S S S S S S S S S S
--------------------------|
--------------------------|
--3-3-3-2-L---3-3-3-2-L---|
--3-3-3-2-L---3-3-3-2-L---|
--1-1-1-0-L---1-1-1-0-L---|
--------------------------|


  S S S S S S S E  S E  S S S S
--------------------------------|
--------------------------------|
--9-L-9-L-9-9-9-9--9-9--9-9-9-9-|
--9-L-9-L-9-9-9-9--9-9--9-9-9-9-|
--7-L-7-L-7-7-7-7--7-7--7-7-7-7-|
--0-L-0-L-0-0-0-0--0-0--0-0-0-0-|


                     PM PM PM PM PM PM
  S S S S S S S S    E  E  E  E  E  E
------------------|--------------------|
------------------|--------------------|
------------------|--------------------|
--5-L-5-L-5-5-5-5-|--------------------|
--5-L-5-L-5-5-5-5-|--7--6--5--4--3--2--|
--3-L-3-L-3-3-3-3-|--5--4--3--2--1--0--|


  S S S S S S S E  S E  S S S S
--------------------------------|
--------------------------------|
--9-L-9-L-9-9-9-9--9-9--9-9-9-9-|
--9-L-9-L-9-9-9-9--9-9--9-9-9-9-|
--7-L-7-L-7-7-7-7--7-7--7-7-7-7-|
--0-L-0-L-0-0-0-0--0-0--0-0-0-0-|


  S S S S S S S S
------------------|
------------------|
------------------|
--5-L-5-L-5-5-5-5-|
--5-L-5-L-5-5-5-5-|
--3-L-3-L-3-3-3-3-|


  S S S S S S S S S S S S
--------------------------|
--------------------------|
--3-3-3-2-L---3-3-3-2-L---|
--3-3-3-2-L---3-3-3-2-L---|
--1-1-1-0-L---1-1-1-0-L---|
--------------------------|


  E  E  S S S E  S E  S S S S
------------------------------|
------------------------------|
--4--4--4-4-4-4--4-4--4-4-2-4-|
--4--4--4-4-4-4--4-4--4-4-2-4-|
--2--2--2-2-2-2--2-2--2-2-0-2-|
------------------------------|


                   PM PM PM PM PM PM
  E  E  S S S S    E  E  E  E  E  E
----------------|--------------------|
----------------|--------------------|
--5--5--5-5-5-5-|--------------------|
--5--5--5-5-5-5-|--------------------|
--3--3--3-3-3-3-|--7--6--5--4--3--2--|
----------------|--5--4--3--2--1--0--|


  PM PM PM PM PM PM    PM PM PM PM PM PM
  E  E  E  E  E  E     E  E  E  E  E  E
--------------------|--------------------|
--------------------|--------------------|
--------------------|--------------------|
--------------------|--------------------|
--7--6--5--4--3--2--|--7--6--5--4--3--2--|
--5--4--3--2--1--0--|--5--4--3--2--1--0--|


  T T T T T T T T T T T T T T T T T T T T T T
----------------------------------------------|
----------------------------------------------|
----------------------------------------------|
--2-2-2-2-2-2-2-2-2-2-2-2-2-2-2-2-2-2-2-2-2-2-|
--2-2-2-2-2-2-2-2-2-2-2-2-2-2-2-2-2-2-2-2-2-2-|
--0-0-0-0-0-0-0-0-0-0-0-0-0-0-0-0-0-0-0-0-0-0-|


  E  E  E  E  E  E  E  E
--------------------------||
--------------------------||
--------------------------||
--2-----------------------||
--2-----------------------||
--0-----------------------||
comments
We did not receive enough feedback on this tab! Please rate:
print report bad tab
1 2 3 4 5
1 comment total.
0 reply
Giacotab wrote on May 28 2014, 10:03 am

it's very good

I want to post or [tab]
guest
You may want to rate the tab now too:
select rating
Please do not post tabs as comments. Select "correction" instead!