Oops, an error
Loading. Please wait.

Planet Punk Tab

7,526 views 3 this week
no commentswrite comment
1 2 3 4 5
excellent!
x 3
Autoscroll
+/-
esc
set tempo
stop
Contributor
Difficulty
advanced
Hey! There's an official Ultimate Guitar app which is ideal
for learning songs when you're away from computer. Get the app
WARNING: You are trying to view
                                    content from Ultimate-Guitar.com
                                    in an unauthorized application,
                                    which is prohibited.

                                    Please use an official Ultimate
                                    Guitar Tabs application for iPhone,
                                    iPad or Android to access legitimate
                                    chords, guitar, bass, and drum tabs
                                    from Ultimate-Guitar.com database.

                                    Type "ultimate guitar tabs" in Apple
                                    App Store's or Android Market's
                                    search to find the application.
Super Drei
==========
(M: Gonzales/Urlaub/T: Gonzales/Felsenheimer/Urlaub)


Anm.: In Interlude nur Powerchords davon spielen
   d   B   G   A   C    h   E   F   Eb  C#
1:-5-|-6-|-3-|-5-|-8--|-2-|-7-|-1-|-6-|-4-|
2:-6-|-6-|-3-|-5-|-8--|-3-|-9-|-1-|-8-|-6-|
3:-7-|-7-|-4-|-6-|-9--|-4-|-9-|-2-|-8-|-6-|
4:-7-|-8-|-5-|-7-|-10-|-4-|-9-|-3-|-8-|-6-|
5:-5-|-8-|-5-|-7-|-10-|-2-|-7-|-3-|-6-|-4-|
6:---|-6-|-3-|-5-|-8--|---|---|-1-|---|---|



"Also ich...ich hab' drei Jungs da draußen...und die sind drauf und dran...
  Dich..ALLE zu machen!!"

Intro:

In jedem Takt einmal Folgendes d-Riff spielen:
1:-----------------------|
2:-----------------------|
3:-7--77777--7--7-7--7-7-|
4:-7--77777--7--7-7--7-7-|
5:-5--55555--5--5-5--5-5-|
6:-----------------------|


1:--------|--------|--------|--------|--------|---------|---------|---------|---------|--------|
2:--------|--------|--------|--------|--------|---------|---------|---------|---------|--------|
3:--------|--------|--------|--------|--------|---------|---------|---------|---------|--------|
4:--------|--------|--------|--------|--------|---------|---------|---------|---------|--------|
5:-5(16x)-|-6(16x)-|-7(16x)-|-8(16x)-|-9(16x)-|-10(16x)-|-11(16x)-|-12(16x)-|-13(16x)-|-15(8x)-|
6:--------|--------|--------|--------|--------|---------|---------|---------|---------|--------|


Interlude:
    d            B             G             A  B  C
1:-----------------|-------------|-------------------|
2:-----------------|-------------|-------------------|
3:--7---101010-9-7-|--101010-9-7-|--101010-7-9--7--5-|
4:-----------------|-------------|-------------------|
5:--5---8-8-8--7-5-|--8-8-8--7-5-|--8-8-8--5-7--5--3-|
6:-----------------|-------------|-------------------|
    d            B             G             A  B   C
1:-----------------|-------------|---------------------|
2:-----------------|-------------|---------------------|
3:--7---101010-9-7-|--101010-9-7-|--101010-7-9--10--12-|
4:-----------------|-------------|---------------------|
5:--5---8-8-8--7-5-|--8-8-8--7-5-|--8-8-8--5-7--8---10-|
6:-----------------|-------------|---------------------|


1.Strophe:
d                           B                              G
  Jetzt ist es wieder mal soweit, es war auch allerhöchste Zeit.
                            A            B         C
Und wir sind wieder mal genial - tut uns furchtbar leid!
d                           B                       G
  Wie immer schauer als der Rest, also bitte keinen Neid.
                        A                 B       C
Halt die beste Band der Welt, bei aller Bescheidenheit.


Refrain:
h               G                      A
Ham' wir Euch gefehlt? Habt Ihr uns vermisst?
                          E                        h
Ist Euch jetzt klar, dass mit uns die Welt schöner ist?
                G                     A
Seid Ihr wieder froh? Na, was für ein Glück...
                        B          C               d  B  G  A
Wir sagen 'Hallo', denn wir sind zurück - wir sind da...
B        C      d  B  G  A  B C
Wir sind wieder da...


2.Strophe:
d                             B                              G
  Wir lungern nur an Schulen 'rum, verkaufen kleinen Kindern Crack.
                      A                 B      C     d
Wir singen unzüchtige Lieder und geht'n abends lange weg.
                       B                             G
Tischmanieren sind uns fremd, wir essen selten mit Besteck.
                             A               B      C
Die Plattenfirma schickt uns jedes Jahr 'nen dicken Scheck.


Refrain:
h               G                      A
Habt Ihr uns vermisst? Ham' wir Euch gefehlt?
                    E                    h
Habt Ihr heimlich geweint und die Tage gezählt?
               G                         A
Ja, wir sind zurück, und es riecht nach Urin.
                     B           C     (-->Solo)
Wir sind die Ärzte - aus Berlin (aus Berlin).


Solo (Mit Interlude):
   d                                  B
1:-10-----10-----10-----13-13-13----|-10-----10-----10-----13-13-13----|
2:-13b15--13b15--13b15-----------13-|-13b15--13b15--13b15-----------13-|
3:----------------------------------|----------------------------------|
4:----------------------------------|----------------------------------|
5:----------------------------------|----------------------------------|
6:----------------------------------|----------------------------------|
   G                                  A      B     C
1:-10-----10-----10-----13-13-13----|-12--12-13-12-10-----|
2:-13b15--13b15--13b15-----------13-|-----------------13--|
3:----------------------------------|---------------------|
4:----------------------------------|---------------------|
5:----------------------------------|---------------------|
6:----------------------------------|---------------------|
   d                                  B
1:-10-----10-----10-----13-13-13----|-10-----10-----10-----13-13-13----|
2:-13b15--13b15--13b15-----------13-|-13b15--13b15--13b15-----------13-|
3:----------------------------------|----------------------------------|
4:----------------------------------|----------------------------------|
5:----------------------------------|----------------------------------|
6:----------------------------------|----------------------------------|
   G                                  A    B    C       F
1:-10-----10-----10-----13-13-13----|-12---13---15------17_______/13____--|
2:-13b15--13b15--13b15-----------13-|-------------------------------------|
3:----------------------------------|-------------------------------------|
4:----------------------------------|-------------------------------------|
5:----------------------------------|-------------------------------------|
6:----------------------------------|-------------------------------------|
                                                 Wie ein H...
Outro:
C       F    C              d       B
Wie ein Hagelsturm an einem   Sommertag.
        F           D#            d             C#
Wie ein plötzlicher Mißton in der schönsten Melodie.
    F              B            d               C
Die einen finden's Scheiße, die Ander'n findens stark.
  G                  A-B     C           F
Genau wie jedes Jahr  -  Wir sind wieder da...


"Wer sind diese Kerle?"
"Is' das nich' 'ne Punkband?"
"Na und? Ich werd' mit den Knaben schon fertig!"

	
 Schunder-Song
=============
(M/T: Urlaub)


Akkorde:
Strophe:              Refrain:          Outro:
   C   H   a   G   D   C    G   d   F    C    G   d   F
1:---|---|---|---|---|-8--|-3-|-5-|-8--|----|---|---|----|
2:---|---|---|---|---|-8--|-3-|-6-|-10-|----|---|---|----|
3:-5-|-4-|-2-|---|-7-|-9--|-4-|-7-|-10-|----|---|-7-|-10-|
4:-5-|-4-|-2-|-5-|-7-|-10-|-5-|-7-|-10-|-10-|-5-|-7-|-10-|
5:-3-|-2-|-0-|-5-|-5-|-10-|-5-|-5-|-8--|-10-|-5-|-5-|-8--|
6:---|---|---|-3-|---|-8--|-3-|---|----|-8--|-3-|---|----|



1.Strophe:
C H a
      Du hast mich so oft angespuckt, geschlagen und getreten.
C H a                                                        G
      Das war nich' sehr nett von Dir, ich hatte nie darum gebeten.
C H a                     F           C                    G
      Deine Freunde haben applaudiert.  Sie fanden es ganz toll,
C H a                 F                 C                 G
      Wenn Du mich vermöbelt hast, doch jetzt ist das Maß voll.
C D C                G                    F               G
      Gewalt erzeugt Gegengewalt, hat man Dir das nicht erklärt?
C D    C                 G                    F               G
  Oder hast Du da auch - wie so oft - einfach nicht genau zugehört?
C D F                             G        C    H F
     Jetzt stehst Du vor mir, und wir sind ganz allein.
                        G      C     H   F
Keiner kann Dir helfen, keiner steht Dir bei.
                     G        C H     G-Fill
Ich schlag' nur noch auf Dich a-hein!

G-Fill:
   pm.............
1:-------------------|
2:-----------------3-|
3:-------------4-4-4-|
4:---------5-5-------|
5:-----5-5-----------|
6:-3-3---------------|


Refrain(Ska-Rhytmus):
                    C             G  d  F
Immer mitten in die Fresse 'rein.
                    C             G  d  F  C
Immer mitten in die Fresse 'rein.


2.Strophe:
C H a
      Ich bin nich' stark, und ich bin kein Held, doch was zuviel ist, ist zuviel.
C H a                       Fill(2:-1^3^1-|)                      G
      Für Deine Aggressionen                 war ich immer das Ventil.

Riff:
  a           F               C       G    C H  a           F        C          G
1:----------|----------------|-----------|-----|----------|----------|-------------|
2:----------|----------------|-----------|-----|----------|----------|-------------|
3:----------|----------------|-----------|-----|----------|----------|-------------|
4:---3-2----|-3-2-2-2------2-|---3-2--0--|-(0)-|---3-2----|-3-2-2----|-2----3-2-0--|
5:--------3-|----------3-3---|3----------|-----|--------3-|-------3--|---3---------|
6:----------|----------------|-----------|-----|----------|----------|-------------|

C H a(Riff)                F                       C               G
       Deine Freunde waren immer dabei, doch jetzt wendet sich das Blatt.
C H a                        F              C                 G
      Auch ich morgen besser umzieh', irgendwo in eine andere Stadt.
C D C                G                    F               G
      Gewalt erzeugt Gegengewalt, hat man Dir das nicht erzählt?
C D      C                 G               F            G
    Oder hast Du da auch - wie so oft - im Unterricht gefehlt?
C D F                             G        C    H F
     Jetzt liegst Du vor mir, und wir sind ganz allein.
                G      C   H    F
Und ich schlage weiter auf Dich ein,
                       G           C  H     G-Fill
Das tut gut das musste einfach mal sa-hein!


Refrain(Ska-Rhytmus):

C-Riff:
    C               G           d                 F
1:-----------------|-----------|--------------------|
2:-----------------|-----------|--------------------|
3:--9--9--9--9-9-9-|7--7--7--5-|7--7--7--7-9-7-5----|
4:-----------------|-----------|------------------3-|
5:--7--7--7--7-7-7-|5--5--5--3-|5--5--5--5-7-5-3----|
6:-----------------|-----------|------------------1-|

                    C-Riff         G  d  F
Immer mitten in die Fresse 'rein.
                    C-Riff         G  d  F
Immer mitten in die Fresse 'rein.


Outro:
                    C        G  d
Immer mitten in die Fresse.
F             C       G  d
Mitten in die Fresse.
F             C       G  d
Mitten in die Fresse.
F             C       G  d
Mitten in die Fresse.
F             C       G  d
Mitten in die Fresse.
F             C(Pause bis zum G)
Mitten in die Fresse.

Mitten in die Fresse.
       G  C       G  d
Mitten    Fresse.
F             C       G  d
Mitten in die Fresse.
F             C       G  d
Mitten in die Fresse.
F             C       G  d
Mitten in die Fresse.
F             C
Mitten in die Fresse.

	
Hurra
=====
(M/T: Urlaub) 


Anm.: Akkorde
   A   D   G   E   D4  f#  h   c#
1:-0-|-2-|---|-0-|-3-|-2-|-2-|-4-|
2:-2-|-3-|---|-0-|-3-|-2-|-3-|-5-|
3:-2-|-2-|---|-1-|-2-|-2-|-4-|-6-|
4:-2-|-0-|-5-|-2-|-0-|-4-|-4-|-6-|
5:-0-|---|-5-|-2-|---|-4-|-2-|-4-|
6:---|---|-3-|-0-|---|-2-|---|---|



Intro (Zuerst nur Keyboard):
   A D A D     A        D         A        D          A         D          A         D
1:-----------|----------2--2--|------------2--2--|--------------2--2--|--------------2--2--|
2:-----------|-2--2-----3--3--|---2--2-----3--3--|----2--2------3--3--|----2--2------3--3--|
3:-----------|-2--2-----2--2--|---2--2-----2--2--|----2--2------2--2--|----2--2------2--2--|
4:-----------|-2--2-----0--0--|---2--2-----0--0--|----2--2------0--0--|----2--2------0--0--|
5:-----------|-0--0-----------|---0--0-----------|----0--0------------|----0--0------------|
6:-----------|----------------|------------------|2b3-------2b3-------|2b3-------2b3-------|
                  A       E              D                      A       E
1:---------------|----------------------|2--2------------------|----------------------|
2:---------------|--------0--2-0--------|3--3----3--2----------|--------0--2-0--------|
3:-7--6--4--2----|2--2--2----------2----|2--2--2------4--2-----|2--2--2----------2----|
4:-7--6--4--2--4-|2--2----------------4-|0--0----------------4-|2--2----------------4-|
5:-5--4--2--0----|0--0------------------|----------------------|0--0------------------|
6:---------------|----------------------|----------------------|----------------------|
  D                      A       E              D                      A       E
1:2--2------------------|----------------------|2--2------------------|----------------------|
2:3--3----3--2----------|--------0--2-0--------|3--3----3--2----------|--------0--2-0--------|
3:2--2--2------4--2-----|2--2--2----------2----|2--2--2------4--2-----|2--2--2----------2----|
4:0--0----------------4-|2--2----------------4-|0--0----------------4-|2--2----------------4-|
5:----------------------|0--0------------------|----------------------|0--0------------------|
6:----------------------|----------------------|----------------------|----------------------|
  D                      D4 D4 D4 D4 D
1:2--2------------------|--3--3--3--3--2-|
2:3--3----3--2----------|--3--3--3--3--3-|
3:2--2--2------4--2-----|--2--2--2--2--2-|
4:0--0----------------4-|--0--0--0--0--0-|
5:----------------------|----------------|
6:----------------------|----------------|


1.Strophe:
f#                   D           A
Weißt Du noch, wie's früher war?  Früher war alles schlecht.
    f#               D                   A
Der Himmel grau, die Menschen mies - Die Welt war furchtbar ungerecht.
     h                  D
Doch dann, dann kam die Wende - Unser Leid war zu Ende.


Refrain:
A              E             f#               D
  Hipp Hipp Hurra, alles ist super, alles ist wunderbar.
A              E             f#             D            D4 D4 D4 D4 D
  Hipp Hipp Hurra, alles ist besser, als es damals war.


2.Strophe:
f#               D            A
Früher waren wir alle traurig,  wir weinten jeden Tag.
   f#            D                 A
Es nieselte, wir waren oft krank - Jetzt ist alles total stark.
      D                     A
Jetzt lachen immer alle und reißen ständig Witze.
    D                            E
Wir sind nur noch am Baden gehen - Wejen die Hitze
h                          D
  Und ich find es wirklich scharf - Dass ich das noch erleben darf.


Refrain:
A              E             f#               D
  Hipp Hipp Hurra, alles ist super, alles ist wunderbar.
A              E             f#             D
  Hipp Hipp Hurra, alles ist besser, als es gestern war.
h           A                D                    E
  Alle sind happy, alle sind glücklich, alle sind froh.
    h                        D         E           A(-->Interlude)
Und überall wo man hinguckt, Liebe und Frieden und so.


Interlude:
  A                      D                      A                      D
1:----------------------|----------------------|----------------------|--------------------|
2:----------------------|----------------------|----------------------|--------------------|
3:----------------------|--------7--6----------|----------------------|--------7--6--------|
4:7--7--7-9-/11/9--7----|7--7--7-------9--7----|7--7--7-9-/11/9--7----|7--7--7-------9--7--|
5:--------------------9-|--------------------9-|--------------------9-|--------------------|
6:----------------------|----------------------|----------------------|--------------------|


Solo:
   A             E           f#            D             A              E
1:--------------|----------|-------------|-----------7-|-9--9--9-9-9--|-10--10-9--7-0-0-|
2:-10--10-10-10-|9--7--7---|-7-----------|-7--10--10---|--------------|-----------------|
3:--------------|--------9-|----9--9-9-9-|-------------|--------------|-----------------|
4:--------------|----------|-------------|-------------|--------------|-----------------|
5:--------------|----------|-------------|-------------|--------------|-----------------|
6:--------------|----------|-------------|-------------|--------------|-----------------|
   c#                D                  E
1:-10--10-9--7-0-0-|-10--10-9--7------|-12^0^12^0^12^0^12^0^12^0^12^0^14^0^14^0^14^0^14^0^14^-|
2:-----------------|-------------10-0-|-------------------------------------------------------|
3:-----------------|------------------|-------------------------------------------------------|
4:-----------------|------------------|-------------------------------------------------------|
5:-----------------|------------------|-------------------------------------------------------|
6:-----------------|------------------|-------------------------------------------------------|
                                        (scratch...)
1:-0^14^0^16^0^16^0^16^0^16^0^16^0^16^0^-|
2:---------------------------------------|
3:---------------------------------------|
4:---------------------------------------|
5:---------------------------------------|
6:---------------------------------------|


3.Strophe(nur Bass spielt):
A               E               f#            D
Gestern ging es allen dreckig - Heute geht es steil bergauf.
A           E          f#          D
Jeder hat 6 Richtige - Alle sind total gut drauf.
  A(G. beginnt) E           f#           D
Europa, Asien,  Afrika - Australien und Amerika.
A               E            f#            D
Friede, Freude, Eierkuchen - Alle singen: "Ja, ja, ja!"


Refrain (nur Gesang):
Hipp Hipp Hurra, alles ist super, alles ist wunderbar.
Hipp Hipp Hurra, alles ist besser, als es gestern war.


D4 D4 D4 D4 D


Outro-Refrain:
A              E             f#               D
  Hipp Hipp Hurra, alles ist super, alles ist wunderbar.
A              E             f#             D
  Hipp Hipp Hurra, alles ist besser, als es damals war.

h           c#                 D                E
  Alle sind Freunde, alle sind happy, alle sind froh.
    h                        D         E  
Und überall wo man hinguckt, Liebe und Frieden
    h                        D         E   
Und überall wo man hinguckt, Liebe und Frieden
    h                        D         E           A
Und überall wo man hinguckt, Liebe und Frieden und so.


A D (2x) Keyboard

	
Geh mit mir
===========
(M/T: Felsenheimer)


Anm.:Akkorde
Asus2  a   G   F   C
1:-0-|---|---|---|---|
2:-0-|---|---|---|---|
3:-2-|---|---|---|-5-|
4:-2-|-7-|-5-|-3-|-5-|
5:-0-|-7-|-5-|-3-|-3-|
6:---|-5-|-3-|-1-|---|


1.Strophe:
                          a        G
Ich schau Dir schon lange zu-Baby, Du
         F              G                 Asus2(Git. setzt ein)
Bist der beste Anblick, der sich mir heut bot - ich seh rot!

Sagst Du nein, dann geh ich tot.
       a                 G                F            G 
Glaube mir, das ist kein Trick, nur der berühmte erste Blick.
      C               G              a        
Jedes Wort aus meinem Mund klingt so ungeschickt...


Refrain:
        C            G          F                G
Gib zu, Du fühlst es auch & ich hab was Du jetzt brauchst.
C         G                 B
In meinem Herzen steht Dein Name an der Tür.
      C            G            F              G 
& die Bombe in mir tickt, Baby, Du machst mich verrückt, bitte...
B            C
Geh mit mir! Geh mit mir!


2.Strophe:
G           h                 D
Ich weiss genau, dass Du mein Baby wirst-
       G            C             D   Fill
So wie es in meiner Hand zu lesen war-

1:--3-2----3-2---
2:------3------3-
G             h              D
Will, dass Du auf die Stimme in Dir hörst-
           G               C               D  Fill  (-->Solo)
Die sagt: "Ja", die sagt: "Ja", die sagt: "Ja"


Solo:
        a              G               a            G              F
1:----------|------------|---------------|-------------|--------------|
2:----------|------------|---------------|-------------|--------------|
3:----------|------------|---------------|-------------|--------------|
4:----------|------------|---------------|-----------5-|--------5--7--|
5:--5/7-----|-7--5-----5-|-----3--5--5/7-|--7--5--3----|--5--7--------|
6:-------5--|-------8----|--5------------|-------------|--------------|
             G            E                      F
1:---------------|--------------------------------------------------|
2:---------------|-------------8-8--8------8-----8------------------|
3:--4--4^5-5-----|--4--5--7b9----------7b9---7b9----7b9--7--5-------|
4:------------7--|--------------------------------------------------|
5:---------------|--------------------------------------------------|
6:---------------|--------------------------------------------------|


Refrain:
          C            G          F                G
Ich weiß, Du fühlst es auch & ich hab was Du jetzt brauchst
C(Fill)   G                 B
In meinem Herzen stehtDdein Name an der Tür.
      C            G            F              G 
& die Bombe in mir tickt, Baby, Du machst mich verrückt, bitte...

Fill(bis bitte geh mit):
1:--13^15--
      B       (F.2)  C(Fill)
Bitte geh mit mir,   geh mit mir

Fill2:
1:--13~~~--


3.Strophe:
                         a           G
Ich schau Dir noch lange nach- Baby, ach
       F                   G               Asus2
Dieser Traum verschwand so schnell, wie er begann - irgendwann...
            (F)               G       Bm7      (-->Fill3)
Hab ich den Mut & sprech Dich an...

Fill3:
   P.M.
1:-------------------10^11^10^11^10^11^10^11^10^11^10^11^10--|
2:-----------11-13-------------------------------------------|
3:--------10-------------------------------------------------|
4:------8----------------------------------------------------|
5:----8------------------------------------------------------|
6:--6--------------------------------------------------------|

	
Langweilig
==========
(M/T: Urlaub)


Anm.: Akkorde
   E  E/Eb  c#  A  A/G#  f#  H   G#
1:---|----|---|---|----|---|---|---|
2:---|----|---|---|----|---|---|---|
3:-9-|-9--|-6-|---|----|---|---|---|
4:-9-|-9--|-6-|-7-|-7--|-4-|-9-|-6-|
5:-7-|-6--|-4-|-7-|-7--|-4-|-9-|-6-|
6:---|----|---|-5-|-4--|-2-|-7-|-4-|



1.Strophe:
    E                E/Eb                         c#
Ich sitze auf meinem Stuhl und ich schaue aus dem Fenster
        A                 A/G#          f#
und ich stell' mir wieder mal die alten Fragen:
             H                                 E                   G#
Wo komm' ich her, wo geh' ich hin, und wieviel Zeit werd' ich noch haben?
c#          H             A          g#                f#
  Ich denke nach über die Welt, über das, was wirklich zählt,
           E                H       
ich weiß genau, was mich so quält:
c#          H                  A
  Ich bin genervt, ich bin frustriert,
          g#                f#
weil hier einfach nichts passiert,
          E            H
weil hier nie etwas passiert.
G# A                               c#           H                A
     Und ich schau' wieder auf die Uhr, Du bist immer noch nicht da,
                    c#              H
keine Ahnung, wo Du bleibst, es ist wahr:


Refrain:
        E      H            c#     g#           A      E
Mir ist langweilig, mir ist langweilig, sterbenslangweilig
     f#         A
ohne Dich, ohne Dich
H       E      H            c#     g#           A      E
Mir ist langweilig, so stinklangweilig, sterbenslangweilig
     f#         A            H      E(nur Bass)   (scratch...)
ohne Dich, ohne Dich ist mir langweilig


2.Strophe:
    E                E/Eb                    c#
Ich liege auf meinem Bett, und ich starre an die Decke
   E                      E/Eb                  c#
1:----------------------|---------------------|---------------------------|
2:-------10-9-----------|-------10-9----------|----9---10-9---------------|
3:-9-9-x-9--9---9---999-|-9-9-x-9--9--9---999-|----9---9--9----9---111111-|
4:-9-9-x-9--9---9---999-|-9-9-x-9--9--9---999-|-11-11--11-11---11--111111-|
5:-7-7-x-7--7-777---777-|-6-6-x-6--6--6---666-|-11-11--11-11---11--111111-|
6:----------------------|---------------------|-9--9---9--9--999---9-9-9--|

        A               A/G#        f#
und ich wünsche Dir die Pest an den Hals:
   A              A/G#           f#
1:--------------|--------------|---------------------|
2:--------------|--------------|-2-2-x-2-2-----------|
3:----6---6-x-6-|----6---6-x-6-|-2-2-x-4-2---2---222-|
4:-77-7-x-7-x-7-|-77-7-x-7-x-7-|-4-4-x-4-4---4---444-|
5:-77-7-x-7-x-7-|-77-7-x-7-x-7-|-4-4-x-4-4---4---444-|
6:-57-5-x-5-x-5-|-44-4-x-4-x-4-|-2-2-x-2-2-222---222-|

                H                           E                               G#
Lässt mich hier sitzen einfach so; aber vielleicht, vielleicht kommst Du ja bald.
   H                     E                      G#
1:---------------------|----------------------|---------------------|
2:-------5-4-----------|-------10-9-----------|---------------------|
3:-4-4-x-4-4---4---444-|-9-9-x-9--9---9---999-|-5-5-x-6-5--x-5-6565-|
4:-4-4-x-4-4---4---444-|-9-9-x-9--9---9---999-|-6-6-x-6-6--x-6-6666-|
5:-2-2-x-2-2-222---222-|-7-7-x-7--7-777---777-|-6-6-x-6-6--x-6-6666-|
6:---------------------|----------------------|---------------------|

c#              H                  A
  Kein Bock auf Fernsehen, das ist öde,
           g#                f#
Will nicht kiffen, das macht blöde,
           E                 H
will nicht aufsteh'n, bin zu müde.
C c#               H          A
    Ich hab' schon viermal onaniert,
          g#                f#
weil hier einfach nichts passiert,
          E            H
weil hier nie etwas passiert.
G# A                              c#
    Die rechte Hand tut mir jetzt weh,
        H                A
Du bist immer noch nicht da,
                       c#              H
weiß der Teufel, wo Du steckst, es ist wahr:


Refrain:
        E      H            c#     g#           A      E
Mir ist langweilig, sterbenslangweilig, mir ist langweilig
     f#         A       H
ohne Dich, ohne Dich
        E      H            c#     g#           A      E
Scheiße langweilig, mir ist langweilig, so stinklangweilig
     f#         A            H      E(-->Solo)
ohne Dich, ohne Dich ist mir langweilig.


Solo:
   E            H            c#           g#           A             E
1:-------------|------------|------------|-----------|--------------|-----------|
2:-------------|------------|------------|-----------|--------------|-----------|
3:-------------|------------|6---6-6-9-6-|8----------|------6-------|-----------|
4:---------6-7-|9---6---9-9-|------------|----6-----6|-77------9--7-|9----------|
5:-7---7-9-----|------------|------------|-----------|--------------|---7---7-7-|
6:-------------|------------|------------|-----------|--------------|-----------|
 lig.
  F#           A      H      E             H                 c#                g#
1:------------|------------|-0--7--0-7--0-|0---0--7--0-7-0-|-11b12--11--9-----|-----------|
2:------------|------------|--------------|----------------|--------------12--|9^10^9---9-|
3:------------|---6-8-9--8-|--------------|----------------|------------------|-----------|
4:--------6-7-|9-----------|--------------|----------------|------------------|-----------|
5:9---9-9-----|------------|--------------|----------------|------------------|-----------|
6:------------|------------|--------------|----------------|------------------|-----------|
  A                    E                F#               A          H            E(spielt kurz
1:--------999---------|----------------|----------------|----9-11-11b12---11--|    weiter)
2:101010-------12--10-|12--0-----------|-----------9-10-|12-------------------|
3:--------------------|-------9---9/11-|11---11-11------|---------------------|
4:--------------------|----------------|----------------|---------------------|
5:--------------------|----------------|----------------|---------------------|
6:--------------------|----------------|----------------|---------------------|

	
Mein Freund Michael
===================
(M/T: Urlaub)


Anm.:Die Akkorde sind clean gespielt bis zur Markierung
   G   C   D
1:-3-|-0-|-2-|
2:-3-|-1-|-3-|
3:-4-|-0-|-2-|
4:-5-|-2-|-0-|
5:-5-|-3-|---|
6:-3-|---|---|


Bass-Begleitung:
1:---------------|-----------------|
2:---------------|-----------------|
3:------5-5------|-3-3-3-5-3-2-0---|
4:--3-3-----3-3--|---------------3-|



Intro:

Die Begleitung der Streicher zm Anfangssatz:
    F  G#   C#       Eb F  F# G
1:-------------------------------|   Die Akkorde dienen zur richtigen
2:-------------------4--6--7--8--|   Einsetzung in dem Satz
3:----------6--------------------|
4:--7--6-------------------------|
5:--8----------------------------|
6:-------------------------------|


F G#             C#                   Eb F                                      F#  G
  Vor 2000 Jahren  sagte ein weiser Chi -nese, der über die Zauberkraft des Sex nachdachte:


1.Strophe (ohne Begleitung):

Gib Gas (lieber Michael Schuhmacher)
Gib Gas (lieber Michael Schuhmacher)
Gib Gas (lieber Michael Schuhmacher)
Gib Gas (lieber Michael Schuhmacher)

Fährst Du immer im Kreis (brumm, brumm, brumm)
da wird der Motor ganz heiß. (brumm, brumm, brumm)
Fährst Du immer im Kreis (brumm, brumm, brumm)
                                  (Fill)
da wird der Motor ganz heiß. (brumm, brumm-bi-dumm)

Fill:
1:---------------------|
2:---------------------|
3:---------------------|
4:------------5--------|
5:--5---5-5/7---7-5----|
6:------------------3--|


2.Strophe [ab hier mit Begleitung]:
         G           G  C
Gib Gas (lieber Michael Schuhmacher)
D        G           G  C
Gib Gas (lieber Michael Schuhmacher)

[Im Hintergrund weiter 'Gib Gas...']
D     G                G            C           D            G             G C
  Ich hab für Dich 'ne Lebens-ver-sicherung auf meinen Namen abgeschlossen


3.Strophe [ohne 'Gib Gas...']:
      D            G      G           C
Tritt nur auf's Gaspedal      (Brumm, brummm, brumm)
   D             G     G         C
Oh mach es noch einmal   (Brumm, brumm, brumm)
      D            G      G           C
Tritt nur auf's Gaspedal      (Brumm, brummm, brumm)
   D             G        G             C
Oh mach es noch einmal   (Mach es noch einma-ha-ha-hal)


4.Strophe:
D        G           G  C
Gib Gas (lieber Michael Schuhmacher)
D        G           G  C
Gib Gas (lieber Michael Schuhmacher)

[Im Hintergrund weiter 'Gib Gas...']
 C             D        G                G            C           D            G             G C
(Denn du weißt ja:) Ich hab für Dich 'ne Lebens-ver-sicherung auf meinen Namen abgeschlossen


Interlude [mit lustiger Strandmusik]:
D G G C
D G G C
D G G C
D G G C


5.Strophe [ohne 'Gib Gas...']:
     D               G         G            C
Pass auf und schnall Dich fest    (Schnall, schnall, schnall)
     D             G         G         C
Fahr schneller als der Rest    (Brumm, brumm, brumm)
     D               G                G               C
Pass auf und schnall Dich fest  (pass auf und schnall Dich fest)
     D             G         G               C
Fahr schneller als der Rest (etwas schneller als die ander'n)


6.Strophe:
D        G           G  C
Gib Gas (lieber Michael Schuhmacher)
D        G           G  C
Gib Gas (lieber Michael Schuhmacher)
D        G           G  C
Gib Gas (lieber Michael Schuhmacher)
D        G           G  C      D   D D
Gib Gas (lieber Michael Schuhmacher)


7.Strophe [ohne 'Gib Gas...'; ab hier VERZERRT]:
             G               G        C       D
Ich hab auch heute schon mit Göde telefoniert und
            G               G            C        D
wir drücken Dir die Daumen, dass Dir nix passiert
             G               G        C       D
Ich hab auch heute schon mit Göde telefoniert und
            G              G          C
wir drücken Dir die Daumen,  dass Dir nix passiert


8.Strophe:
D        G           G  C
Gib Gas (lieber Michael Schuhmacher)
D        G        G             C             D
Gib Gas (Gib Gas, lieber Micha, denn Du weißt ja:)

[Im Hintergrund weiter Gib Gas...]
    G                G            C           D            G             G C
Ich hab für Dich 'ne Lebens-ver-sicherung auf meinen Namen abgeschlossen


Interlude [mit lustiger Strandmusik]:
D G G C
D G G C
D G G C
D G G C
D G G...       M.S.:"Ich - hab no' lange nich' genug!"


G G C D
G G C D
G G C D
G G C D
G G C D
G G C D
G G C D
G G [Ende aus - Micky Maus]

	
Rod loves you
=============
(M/T: Felsenheimer/Gonzales) 


Anm.:
Akkorde(als Zahlen, da die Namen nur verwirren, wenn ich sie zu den normalen Akkorde schreibe,
   1   2   3    4       dafür wisst ihr dann, wann ihr welchen Akkord anschlagen müsst. Ich bin
1:---|-8-|-12-|---3-|   mit diesen Akkorden nnicht ganz sicher ob die so stimmen, tonal gesehen 
2:-8-|-8-|-12-|--5--|   ist's jedenfalls ok. Die Akkordnamen gelten für Gitarre nur im Refrain
3:-9-|-8-|-12-|-5---|   und ansonsten für die Streicher!
4:---|---|----|-----|
5:---|---|----|-----|
6:---|---|----|-----|


-Und das is 'n ganz böser, böser, böser Bengel


Intro:
    C           a              d                  G
1:--8-8---8-8-|-8--8------8--|-10-10---10-10-10-|-10-10---15-15-15-15-|
2:--8-8---8-8-|-10-10-----10-|-10-10---10-10-10-|-12-12---15-15-15-15-|
3:--9-9---9-9-|-9--9------9--|-10-10---10-10-10-|-12-12---------------|
4:------------|--------------|------------------|---------------------|
5:------------|--------------|------------------|---------------------|
6:------------|--------------|------------------|---------------------|

    C           a              d               Ab     G
1:--8-8---8-8-|-8------8--8--|-10-10---10-10-|-8--8---7--7-|
2:--8-8---8-8-|-10-----10-10-|-10-10---10-10-|-9--9---8--8-|
3:--9-9---9-9-|-9------9--9--|-10-10---10-10-|-8--8---7--7-|
4:------------|--------------|---------------|-------------|
5:------------|--------------|---------------|-------------|
6:------------|--------------|---------------|-------------|


1.Strophe:
             C
Der Typ, von dem wir hier erzähln
             a                 1
ist wirklich jedem zu empfehln
             d         2  G   3 3
ist wirklich wunderbar

       C                    4
Dieser Typ ist voll korrekt
        a
ja, aus Wasser macht er Sekt
        d                G      3 3 3 3
und aus Kot, da macht er Kaviar

d                   G      
  Sein Herz ist ein Bunker
       d                         G
und da schließt er Euch alle mit ein


Refrain(3x Riff A, 1x Riff B):

Remember:
C   a       d              G
ROOOOD, Rod loves you (Rod loves you)
C   a       d              G
ROOOOD, Rod loves you (Rod loves you)
C            a d G
  (Rod) HEHE   
C         a           d             Ab G
ROD (Rod) HEY, DU DA!   I LOVE YOU!


Riff A(Das Ende variiert immer 'n Bissl im Rythmus):
    C           a              d               G
1:--8-8---8-8-|-8--8---8--8--|-10-10---10-10-|-10-10---15-15--15-15-|
2:--8-8---8-8-|-10-10--10-10-|-10-10---10-10-|-12-12---15-15--15-15-|
3:--9-9---9-9-|-9--9---9--9--|-10-10---10-10-|-12-12----------------|
4:------------|--------------|---------------|----------------------|
5:------------|--------------|---------------|----------------------|
6:------------|--------------|---------------|----------------------|

Riff B:
    C           a              d               Ab     G
1:--8-8---8-8-|-8--8---8--8--|-10-10---10-10-|-8--8---7--7-|
2:--8-8---8-8-|-10-10--10-10-|-10-10---10-10-|-9--9---8--8-|
3:--9-9---9-9-|-9--9---9--9--|-10-10---10-10-|-8--8---7--7-|
4:------------|--------------|---------------|-------------|
5:------------|--------------|---------------|-------------|
6:------------|--------------|---------------|-------------|


2.Strophe:
      C                     1
Gegen Ihn, wissen wir jetzt
         a
sind wir niederes Geschnetz
         d         2  G                3  C
sind wir unwürdig und klein (unwürdig und klein)

C                     1
BITTE, WENN IHR MEINT,
     a
DOCH EHRLICH MAL, IHR SCHEINT...
       d                G
KLEINE ARSCHKRIECHER ZU SEIN... (yes Sir, yes Sir)

d                      G
  ICH BIN ZUM LIEBEN GEBOREN
        d                        G
UND DAS SCHLIESST SOGAR EUCH MIT EIN


Refrain(1x Riff A, 1x Riff C):

Remember:
C   a       d              G
ROOOOD, Rod loves you (Rod loves you)
C   a       d              G
ROOOOD, Rod loves you (Rod loves you)


Riff C:
    C           a              d               G
1:--8-8---8-8-|-8--8---8--8--|-10-10---10-10-|-12--12---12--12--12-|
2:--8-8---8-8-|-10-10--10-10-|-10-10---10-10-|-12--12---12--12--12-|
3:--9-9---9-9-|-9--9---9--9--|-10-10---10-10-|-12--12---12--12--12-|
4:------------|--------------|---------------|---------------------|
5:------------|--------------|---------------|---------------------|
6:------------|--------------|---------------|---------------------|


Bridge:
E                 A
  Liebe ist der Beruf
                  E
zu dem Gott ihn erschuf.
              A
Heute ist ROD selbst ein Gott.
  d        G
Oho, Kniet nieder
      d
Kniet nieder
      G
Kniet nieder
      d
Kniet nieder
      G
Kniet nieder
      d                        Ab G       C(-->Refrain)
Kniet nieder (Kniet nieder und be-tet Ihn an! )


Refrain(3x Riff A, 1x Riff C, 2x Riff A):
C   a       d              G
ROOOOD, Rod loves you (Rod loves you)
C   a       d              G                                C
ROOOOD, Rod loves you (Rod loves you)  (HEY DU, REMEMBER: I LOVE YOU)
      a                       d               G
(Rod)   Entzückend, jaja ein echtes Seelchen  REMEMBER:
C         a d              G
ROD (Rod)     HEY, BABY! I LOVE YOU!
C   a       d              G
ROOOOD, Rod loves you (Rod loves you)
C   a       d              G
ROOOOD, Rod loves you (Rod loves you)

	
Der Misanthrop
==============
(M/T: Urlaub)


Akkorde:
   D  D/Db  C  C/H  G   G#  A   E   a   F   E'  F#  F'   G'
1:---|----|---|---|---|---|---|---|---|---|---|---|-8--|-10-|
2:---|----|---|---|---|---|---|---|---|---|---|---|-8--|-10-|
3:-7-|-7--|-5-|-5-|---|---|---|-9-|-2-|---|---|---|-9--|-11-|
4:-7-|-7--|-5-|-5-|-5-|-6-|-7-|-9-|-2-|-3-|-2-|-4-|-10-|-12-|
5:-5-|-4--|-3-|-2-|-5-|-6-|-7-|-7-|-0-|-3-|-2-|-4-|-10-|-12-|
6:---|----|---|---|-3-|-4-|-5-|---|---|-1-|-0-|-2-|-8--|-10-|



Intro:
    D           D/Db         C         C/H     D           D/Db
1:---------------------|-------------------|---------------------|
2:---------------------|-------------------|---------------------|
3:---------------------|-------------------|-------7--7-7--6-----|
4:---------------------|-------------------|---5/7------------7--|
5:------5--5-5--4------|-------3--3-3--2---|---------------------|
6:--3/5------------5---|-----3-------------|---------------------|
   C                C/H
1:--------------------------------------------|
2:------------------8b10--b10--b10--8---------|
3:-10--10--10-7-10--------------------10-7~~--|
4:--------------------------------------------|
5:--------------------------------------------|
6:--------------------------------------------|


1.Strophe:
D       D/Db             C              C/H            D
Ständig fragst Du mich warum, wieso, weshalb ich etwas mache.
        D/b         C                     C/H            G      G# A
Was ich mir dabei gedacht hab, misch Dich nicht in meine Sachen.
D    D/Db             C               C/H          D
Immerzu willst Du was wissen, ich hör immer nur WARUM?
     D/b               C                 C/H               G     G# A  Fill1
Immerzu stellst Du mir Fragen, merkst Du nicht, ich bleibe stumm?


Fill1:
     E
|1:--------------------------------------------|
|2:--------------------------------------------|
|3:--9--7--9--------------9--7--9--------------|
|4:--9--7--9--------------9--7--9--------------|
|5:--7--5--7---f+8b9r8----7--5--7---f+8b9r8----|
|6:--------------------------------------------|
|                                              |
|1:--------------------------------------------|
|2:--------------------------------------------|
|3:--------------------------------------------|
|4:--------------------------------------------|
|5:--7______________________________________1--|
|6:--------------------------------------------|


    H              C         D             E
Ich rede nicht mit Dir, also hör mir nicht zu.
H               C                 D          E
Stell mir keine Fragen, lass mich einfach in Ruh'.


Refrain:
a            C           G               F               a
Wie soll ich Dir etwas erklären, was ich selber nicht versteh'.
      C                G               D  C        H     a(-->Solo I)
Warum soll ich Dir was zeigen, was ich selber noch nicht seh'.
        C              G                F             a
Was ich denke, was ich fühle, macht für mich genügend Sinn.
        C              G
Und ich bin so wie ich bin.


Refrainbegleitung:
   a      C           G      F                  a      C           G          D  C    H    a
1:--------------------------------------------|----------------------------------------------|
2:---------------5----------------------------|---------------5------------------------------|
3:-2--2-2-5----0---5--------------------------|-2--2-2-5----0---5-------------7--5-5--4--4-2-|
4:-2--2-2-5--3--------5--5-5-3------2---------|-2--2-2-5--3--------5--5--5-5--7--5-5--4--4-2-|
5:-0--0-0-3-----------5--5-5-3--0-3---2-0---0-|-0--0-0-3-----------5--5--5-5--5--3-3--2--2-0-|
6:--------------------3--3-3-1------------3---|--------------------3--3--3-3-----------------|
   a      C           G      F                  a      C           G
1:--------------------------------------------|--------------------------------|
2:---------------5----------------------------|---------------5----------------|
3:-2--2-2-5----0---5--------------------------|-2--2-2-5----0---5--------------|
4:-2--2-2-5--3--------5--5-5-3------2---------|-2--2-2-5--3--------5--5--5-5-5-|
5:-0--0-0-3-----------5--5-5-3--0-3---2-0---0-|-0--0-0-3-----------5--5--5-5-5-|
6:--------------------3--3-3-1------------3---|--------------------3--3--3-3-3-|


Solo I:
   a            C   G            F    a            C   G
1:--------------8----------------10-|--------------8------------------------|
2:-10--10-10-10-----12--12-12-12----|-10--10-10-10-----12-12-12-12-12-12-12-|
3:----------------------------------|---------------------------------------|
4:----------------------------------|---------------------------------------|
5:----------------------------------|---------------------------------------|
6:----------------------------------|---------------------------------------|

    D         D/Db      C        C/H               D               D/Db
1:------------------------------------------------------------------------|
2:------------------------------------------------------------------------|
3:-----------------------------------------------------------------12--12-|
4:--12-----10-12-----10-12--10---15--15-15-15-14---15--14--12--14---------|
5:------12--------12------------------------------------------------------|
6:------------------------------------------------------------------------|
           C                   C/H                D
1:-------------------------------------------------------------------|
2:-------------------------13--15--15-15-13----13/15-15_-15_-15____--|
3:---------14--14-14-14-14------------------14-----------------------|
4:-14--12------------------------------------------------------------|
5:-------------------------------------------------------------------|
6:-------------------------------------------------------------------|
                                                   Ich hab kein...

2.Strophe:
D             D/Db           C              C/H          D
Ich hab' kein Ziel und keine Richtung, aber meine eigene Welt.
         D/b            C                C/H            G      G#-A Fill1
Ich mach alles, was mir einfällt, scheißegal ob's Dir gefällt.
    H                   C            D             E
Ich weiß, Du siehst das anders, aber ich bin nicht Du.
H                  C                D          E
Hau jetzt ab, Zieh Leine, lass mich endlich in Ruh.


Refrain:
a            C           G               F               a
Wie soll ich Dir etwas erklären, was ich selber nicht versteh'.
      C                G               D  C        H     a(-->Solo II)
Warum soll ich Dir was zeigen, was ich selber noch nicht seh'.
        C              G                F             a
Was ich denke, was ich fühle, macht für mich genügend Sinn.
        C              G
Und ich bin so wie ich bin.


Solo II:
   a                   C             G            F
1:---------------8-8-8-10-10-12-12---19--19-19-19-17-|
2:-10-10-10-10---------------------------------------|
3:---------------------------------------------------|
4:---------------------------------------------------|
5:---------------------------------------------------|
6:---------------------------------------------------|
   a            C    G
1:-17--17-17-17-15---19-19-19-19-19//-|
2:------------------------------------|
3:------------------------------------|
4:------------------------------------|
5:------------------------------------|
6:------------------------------------|


Bridge:
E'(Sington: h) F#  G            A            E'
Selbst wenn es auf Deine Fragen eine Antwort gäbe,
   F#   G             A             H      Fill2
Würdest Du sie sicher nie von mir erfahr'n.


Fill2:
1:------7-7---7-7----------|
2:-/7-7-----7-----5--5--3~-|
3:-------------------------|
4:-------------------------|
5:-------------------------|
6:-------------------------|

E'           F# G                 A                E
Ich hab kein Ge-heimnis, ich leb' nur mein eigenes Leben.
    F#  G                 A            D(-->Solo III)
Und den Rest werd ich Dir niemals offenbaren.


Solo III:
   D              D/Db   C           C/H    D                D/Db
1:---------------------|------------------|---------------------------|
2:---------------------|------------------|---------------------------|
3:------7--7-7-7--6----|----5--5-5-5-4----|------7--7-7-7-7--7-9--9-9-|
4:-5/7--------------7--|-5--------------5-|-5/7-----------------------|
5:---------------------|------------------|---------------------------|
6:---------------------|------------------|---------------------------|
   C                    C/H                 D
1:----------------------------------------------------|
2:------------------------------13----13----13b15____-|
3:-10--12-12-12-10-12---/14--14----14----14-----------|
4:----------------------------------------------------|
5:----------------------------------------------------|
6:----------------------------------------------------|
                                            Ständig...

3.Strophe:
D       D/Db             C              C/H            D
Ständig fragst Du mich warum, wieso, weshalb ich etwas mache.
        D/b         C                     C/H            Fill3
Was ich mir dabei gedacht hab, misch Dich nicht in meine Sachen.

Fill3(2x):
    E      F      F#     G
1:--12-----13-----14-----15-----|
2:--15b17--16b18--17b19--18b20--|
3:------------------------------|
4:------------------------------|
5:------------------------------|
6:------------------------------|


Refrain:
a            C           G               F               a
Wie soll ich Dir etwas erklären, was ich selber nicht versteh'.
      C                G               D  C        H     a
Warum soll ich Dir was zeigen, was ich selber noch nicht seh'.
        C              G                F             a
Was ich denke, was ich fühle, macht für mich genügend Sinn.
            C           G                 F              D(-->Solo IV)
Ich schulde Dir keine Erklärung, denn ich bin so wie ich bin.


Solo IV:
   a            C    G            G    a            C    G              F
1:-17--17-17-17-15---19--19-19-19-17-|-17--17-17-17-15---19-19-19-19-19-17-|
2:-----------------------------------|-------------------------------------|
3:-----------------------------------|-------------------------------------|
4:-----------------------------------|-------------------------------------|
5:-----------------------------------|-------------------------------------|
6:-----------------------------------|-------------------------------------|
    D           D/Db              C              C/H
1:------------------------------|----------------------------------------|
2:------------------------------|----------------------------------------|
3:--------------10--9---9-9-9/12|-10--9-9-9-----------------9-10-10----9-|
4:-12--12-12-12-----------------|-----------12---10^12---12---------12---|
5:------------------------------|----------------------------------------|
6:------------------------------|----------------------------------------|
        D                 D/Db                                 C        C/H
1:------------------------------------------------------------|---------12-10-13-13-10-10-10-10-|
2:---------------------------------------------10-10-10-10-10-|13-13-13-------------------------|
3:----9-9----9-9-9-9-9-12-12-12-12----------------------------|---------------------------------|
4:-12-----12-----------------------12-12-12-12----------------|---------------------------------|
5:------------------------------------------------------------|---------------------------------|
6:------------------------------------------------------------|---------------------------------|
   D                        D/Db
1:-10-13-10-10-12-10-10-15--10-13-10-12^10^12^13131313131313-|
2:-----------------------------------------------------------|
3:-----------------------------------------------------------|
4:-----------------------------------------------------------|
5:-----------------------------------------------------------|
6:-----------------------------------------------------------|
   C                           C/H
1:-13/15-15-15-15/17-17-17-17--17-19-17-17-20-17-17-|
2:--------------------------------------------------|
3:--------------------------------------------------|
4:--------------------------------------------------|
5:--------------------------------------------------|
6:--------------------------------------------------|
   D                        D/Db
1:-20/22-22-22-22-22-20-20--20/22-22-22-22-22-20-20-|
2:--------------------------------------------------|
3:--------------------------------------------------|
4:--------------------------------------------------|
5:--------------------------------------------------|
6:--------------------------------------------------|
      C                      C/H                    D
1:-20-20-17-17-17//0------------8--8-7--7-----------------------|
2:-------------------------8-10-----------8-8-10~---10-10-10//3-|
3:-------------------0//8---------------------------------------|
4:--------------------------------------------------------------|
5:--------------------------------------------------------------|
6:--------------------------------------------------------------|
     D/Db         C            C/H
1:---------------|------------------------------------8----8-|
2:---3-5-6-6-6-6-|5-3--5-3-5-3-5-5/8~--8-8/10~--10-10---10---|
3:-5-------------|-------------------------------------------|
4:---------------|-------------------------------------------|
5:---------------|-------------------------------------------|
6:---------------|-------------------------------------------|
   D                D/DH           F'              G'              D
1:-1-1-3-1--------3-1---1-1------|-5-5-5-6-5-6-5---7-7-7-8-7-8-7---10-10--|
2:---------3^1--------3-----3-3--|-6-6-6-6-6-6-6---8-8-8-8-8-8-8---10-10--|
3:-------------2-----------------|---------------------------------10-10--|
4:-------------------------------|----------------------------------------|
5:-------------------------------|----------------------------------------|
6:-------------------------------|----------------------------------------|

	
Vermissen, Baby (Gonzalez/Gonzalez/Felsenheimer)
===============

- Sex mit Möbelstücken, was halten Sie davon?

==INTRO==

E :----------------------|------3-----3-x-|----------------------|
B :----------------------|------3-----3-x-|----------------------|
G :----------------------|------0-----0-x-|----------------------|
D :----------------------|------0-----0-x-|----------------------|
A :----------------------|------2-----2-x-|----------------------|
E :0-0-7-0-0-6-0-0-5-0-0-|3-0-0-3-----3-x-|0-0-7-0-0-6-0-0-5-0-0-| (etc.)

------3-----3-x-|
------3-----3-x-|
------0-----0-x-|
------0-----0-x-|
------2-----2-x-|
3-0-0-3-----3-x-|

==STROPHE== (Begleitung wie Intro, aber stakkato ("muted"))

Die ganze Zeit war ich für Dich da, weiß nicht, wie's dazu kam
An mir hat's nicht gelegen, Baby, soviel ist wohl klar
Allzeit bereit, Du kennst mich, Baby, immer Feueralarm
Gegen mich wirkt spanische Fliege wie MAOAM.

==REFRAIN==
  C                Am                Em
e:--0---0---0--0--|-0---0---0---0--|-0----
h:--0---0---0--0--|-0---0---0---0--|-0----
g:--9---11--12-11-|-9---11--12--11-|-0----
d:-10---10--10-10-|-10--10--10--10-|-2----
A:-10---10--10-10-|-0---0---0---0--|-2----
E:----------------|----------------|-0----


C Am               Em           D Dsus4 D
Du - wirst mich vermissen, Baby
C Am               Em           D A
Du - wirst mich vermissen, Baby

==STROPHE==

Du hast mich verlassen - wirklich kaum zu fassen
Siehst Du nicht, wie all die anderen, Baby, gegen mich verblassen?
Das war Dein Recht nicht, ey Baby, echt nicht
Die Frau vom Mann, nicht der Mann von der Frau wird hier verlassen!

==REFRAIN==
C Am               Em           D  Dsus4 D
Du - wirst mich vermissen, Baby
C Am               Em           D A
Du - wirst mich vermissen, Baby


==BRIDGE==
            ritardando
Em - C - G                Em 
       ....wirst mich vermissen, Baby

Bb - G - Em (3x)
       ....wirst mich vermissen, Baby 

Bb - G


C                              A Asus4 A
Du liegst ganz allein im Bett, spielst an Dir rum
            Em                D Dsus4 D
-und Du vermißt mich, Baby!
C                          A Asus4 A 
So ganz allein im Bett Baby, tja, das ist dumm
           Em                 D Dsus4 D
-und Du vermißt mich, Baby.
C                                                A Asus4 A
Statt feinste Schmankerl nur noch Fleischwurst - "eben drum"
            Em
-und Du vermißt mich, Baby

==STROPHE==

Die ganze Zeit war ich für Dich da, doch Du hast mich verlassen
Neue Küche, neuer Staubsauger, doch Du hast mich verlassen
Was ist bloß los mit Dir, Du hattest nie Grund zur Klage
Nur die Ruhe, trink Dir erstmal 'n Bier, sind sicher bloß Deine Tage

==REFRAIN==

Du - wirst mich vermissen, Baby



Nazareth
========
(M/T: Felsenheimer)


Anm.: Das Riff wird in der 1.+2. Strophe gespielt, außer bei GROßGEDRUCKTEN Teilen, da spielt
      'ne verzerrte E-Gitarre)
  Rest:           Bridge:
   a   C   D   G   a   F    G    G4   H   C   D
1:---|---|---|---|-5-|----|----|----|-2-|-3-|-5-|
2:---|---|---|---|-5-|-10-|-12-|-13-|-4-|-5-|-7-|
3:---|-5-|-7-|---|-5-|-10-|-12-|-12-|-4-|-5-|-7-|
4:-7-|-5-|-7-|-5-|-7-|-10-|-12-|-12-|-4-|-5-|-7-|
5:-7-|-3-|-5-|-5-|-7-|-8--|-10-|-10-|-2-|-3-|-5-|
6:-5-|---|---|-3-|-5-|----|----|----|---|---|---|



Riff1(Akustikgitarre):
1:----------|----------|
2:----------|----------|
3:----------|----------|
4:----------|----------|
5:-----2--5-|----3--5--|
6:--3-------|-3--------|



Intro:
(Irgendwie glaub ich, das wird gar nicht mit der Gitarre gespielt, klingt aber trotzdem
interessant)

1:-----------7---7--5^7-5^7^5--------|----------------5-3-5-7--|
2:--3--5--3--------------------8---8-|-5^8^5-------------------|
3:-----------------------------------|---------7--7------------|
4:-----------------------------------|-------------------------|
5:-----------------------------------|-------------------------|
6:-----------------------------------|-------------------------|

1:--7--5-----7---7--5^7-5^7^5--------|----------------5-3-5-3--|
2:--------8--------------------8---8-|-5^8^5-------8-----------|
3:-----------------------------------|---------7---------------|
4:-----------------------------------|-------------------------|
5:-----------------------------------|-------------------------|
6:-----------------------------------|-------------------------|

1:--10--12--10----------------------------------|------------------------|
2:--------------12---12--10^12-10^12^10---------|-----------------13--12-|
3:--------------------------------------12---12-|-9^12^9------12--12--12-|
4:----------------------------------------------|---------12-------------|
5:----------------------------------------------|------------------------|
6:----------------------------------------------|------------------------|

1.Strophe:

Sowas wie Hunger kenn ich nich, denn ich bin sehr stark behaart.
Ins Restaurant, da renn' ich nicht, nein das Geld das wird gespart.
a             C
UND ICH WERD' AUCH NICHT FETT.

Der Mann war ein Jäger und Sammler, ich bin Beides in moderner Form.
Ich jage und sammle ständig - Die Erfolgsquote ist enorm.
a         C              a            C
ICH TU KEINEM TIER WEH.  WENN ICH DIE NÜSTERN BLÄHE
a             C        D     C                  D
ZIEH DIE LUFT RAUS UND REIN--KOMM, ICH LAD DICH EIN


Refrain(w/Refrain-Riff+Akustik für die Akkorde):
         G      C    D             G        C    D
Zu ein NASENKOTELETT,  davon wirst du nich' fett.
          G   C          D                G      C    D
Reichlich Nährwert, Proteine, mein Gratis-Festbankett.


Refrain-Riff(verzerrt):
   G       C      D      G       C      D
1:---------------------|---------------------|
2:---------------------|---------------------|
3:-12------9-12-9-7----|-12------9-12-9-7----|
4:---------------------|---------------------|
5:-10------7-10-7-5----|-10------7-10-7-5----|
6:---------------------|---------------------|
   G       C      D             G       C      D
1:-----------------------------|---------------------|
2:-----------------------------|---------------------|
3:-12------9------14------7----|-12------9-12-9-7----|
4:-----------------------------|---------------------|
5:-10------7------12------5----|-10------7-10-7-5----|
6:-----------------------------|---------------------|


2.Strophe:

Von allen Körperteilen, sind Polypen meine Stars.
Dass ich bei Schnupfen immer froh bin, bedarf wohl keines Kommentars.
(Bedarf wohl keines Kommentars)

a        C               a            C
UN REPAS POUR GOURMETS.  WENN ICH DIE NÜSTERN BLÄHE
a             C        D     C                  D
ZIEH DIE LUFT RAUS UND REIN--KOMM, ICH LAD DICH EIN


Refrain(w/Refrain-Riff+Akustik für die Akkorde):
         G      C    D             G        C    D
Zu ein NASENKOTELETT,  davon wirst du nich' fett.
          G   C          D               G      C    D         Fill1
Reichlich Nährwert, Proteine, auf meinem Festbankett.

Fill1:
1:-10----10----10----10----10----10----8-----|
2:-13b15-13b15-13b15-13b15-13b15-13b15-11b13-|


Bridge:
a                    F
  Jetzt bekämpfen wir jede Hungersnot
G                 G4    G
  mit dem uns gegebenen Nasenbrot.
a                      F
  Das, was übrigbleibt, schmier ich untern Stuhl,
G                    G4      G
  ess ich später auf.  Baby, das ist cool!
a                     F
  Ich fühl mich wie Je sus von Nazareth.
G                      G4       G        H     C        D
  Nur statt Trockenbrot gibt es NASENKOTELETT, NASENKOTELETT


Interlude(clean-wie Intro):

1:--7---7--5^7-5^7^5--------|----------------5-3-5-7--|
2:--------------------8---8-|-5^8^5-------------------|
3:--------------------------|---------7--7------------|
4:--------------------------|-------------------------|
5:--------------------------|-------------------------|
6:--------------------------|-------------------------|

1:--10--12--10----------------------------------|------------------------|
2:--------------12---12--10^12-10^12^10---------|-----------------13--12-|
3:--------------------------------------12---12-|-9^12^9------12--12--12-|
4:----------------------------------------------|---------12-------------|
5:----------------------------------------------|------------------------|
6:----------------------------------------------|------------------------|


3.Strophe(Ab jetzt Riff2 benutzen):

Warum Exotisches bestellen, wenn das Gute liegt so nah?
Ich werd' nie ne Zeche prellen, hab immer was zu knabbern da

Riff2(verzerrt):
1:----------|----------|
2:----------|----------|
3:----------|----------|
4:----------|----------|
5:--2-----2-|----3-----|
6:-----3----|-3-----3--|

Riff3                 Riff2(2x)  Riff3                    Riff2(2x)
HUNGER KENNE ICH KAUM.           ES IST FAST WIE IM TRAUM
Fill2
ZIEH NUR LUFT REIN UND RAUS--BABY, DAS SIEHT LECKER AUS


Riff3(verzerrt):
1:---------|----------|
2:---------|----------|
3:---------|----------|
4:---------|----------|
5:----3----|----7-----|
6:-5-----5-|-8-----8--|

Fill2:
:-----------|---------|---------|---------|---------|---------|
2:----------|---------|---------|---------|---------|---------|
3:----------|---------|---------|---------|---------|---------|
4:----------|----2----|----4----|----2----|----4----|----4----|
5:-----3----|-3-----3-|-5-----5-|-3-----3-|-5-----5-|-5-----5-|
6:--5-----5-|---------|---------|---------|---------|---------|


Refrain:
Riff4(2x)
Mein NASENKOTELETT. Macht garantiert nich' fett.
Riff4(2x)
Brauchst kein Teller, höchstens Tempo und auch kein Besteck.

Riff4:
1:----------|---------|------------|----------|
2:----------|---------|------------|----------|
3:----------|---------|------------|----------|
4:----------|---------|------------|----------|
5:-----2----|----7----|-----12-----|----10----|
6:--3-----3-|-8-----8-|-10------10-|-8------8-|


(Ab hier wieder mit Refrain-Riff+Akustik für die Akkorde)
  G      C    D           G           C    D
NASENKOTELETT, macht garantiert nich' fett.
          G   C          D               G      C    D
Reichlich Nährwert, Proteine, auf meinem Festbankett.
  G      C    D            G        C    D
NASENKOTELETT, davon wirst du nich' fett.
          G   C          D               G      C    D
Reichlich Nährwert, Proteine, auf meinem Festbankett.
  G      C    D  G      C    D  G      C    D  G      C    D
NASENKOTELETT, NASENKOTELETT, NASENKOTELETT, NASENKOTELETT,
  G      C    D  G      C    D  G      C    D  G              C        D
NASENKOTELETT, NASENKOTELETT, NASENKOTELETT, NASEN(kaut schon)KOTELETT,
  G      C    D   G      
NASENKOTELETT,  NASENKOTELETT


Outro:
1:---------------------------------|
2:---------------------------------|
3:---------------------------------|
4:---------9-----------------------|
5:-10--12-----12--10--/12--/12--7--|
6:---------------------------------|

-He, he, he! Ich versuch' gar nich' erst zu widersteh'n, da hab' ich keine Chance!


Meine Ex(plodierte) Freundin
============================
(M/T: Urlaub)

Akkorde:
   a   G   C   E   F   E7    E'     D   A
1:-5-|-3-|-3-|-7-|-1-|-0-|------0-|-5-|-0-|
2:-5-|-3-|-5-|-9-|-1-|-3-|-----0--|-7-|-2-|
3:-5-|-4-|-5-|-9-|-2-|-1-|----1---|-7-|-2-|
4:-7-|-5-|-5-|-9-|-3-|-2-|---2----|-7-|-2-|
5:-7-|-5-|-3-|-7-|-3-|-2-|--2-----|-5-|-0-|
6:-5-|-3-|---|---|-1-|-0-|-0------|---|---|


Refrain(ohne Gitarre; Akkorde in Klammern werden nur von Bläsern gespielt):
EF                        (a)
   Gestern Nacht ist meine Freundin explodiert,
         (F)                          (E7)
Ich hatte nicht damit gerechnet, darum bin ich blutverschmiert.
(F)                      (a)
   Wer konnte ahnen, dass sie so reagiert?
        F               E             a(Git. setzt ein)
Gestern Nacht ist meine Freundin explodiert.


1.Strophe(ab hier normal mit (Akustik-)Gitarre):
G                          C       E                    a
  Täglich liest man in der Zeitung   von spontanen Explosionen.
G                               C             E                                 a
  Man blättert um, und denkt im Stillen: "Das Schicksal wird mich sicherlich verschonen."
G                      C              E                       a
  Ich frage Sie - nee, ich frag' SIE! - wie konnte so etwas geschehn?
G                            C     E                                a
  Mein Baby war mein Ein und Alles, und - entre nous - sie war auch schön.
F                       a                  F
  Sie hatte einen süßen Körper, so wie der eine von den Krupps
  E                    -
- Wie hieß er noch? - "Dörper".


Refrain:
EF                         a
   Gestern Nacht ist meine Freundin explodiert,
          F                            E7
Ich hatte nicht damit gerechnet, darum bin ich blutverschmiert.
F                         a
  Man kann sagen, ich bin ziemlich irritiert.
        F               E             a
Gestern Nacht ist meine Freundin explodiert.


2.Strophe:
G                         C      E                                a
  Ich rief sofort die Polizei an   und sagte: "Komm'se schnell vorbei, Mann!"
G                       C   E                          a
  Meine Freundin ist passé,   so wie ein China-Böller "D".
G                               C      E                               a
  Sie flog mir plötzlich um die Ohren,   kein Wunder, dass ich traurig bin:
G                                C      E                               a
  Ich hab' nicht nur 'ne Frau verloren,   nein, auch die Bettwäsche ist hin.
    F                            a
Ich wollt' sie gerade küssen, da gab es einen Knall.
      F                             E7
Grad' eben lag sie neben mir, jetzt liegt sie überall - Im Raum verteilt.


Refrain:
F                         a
  Gestern Nacht ist meine Freundin explodiert,
               F                            E7
Zum Glück trug ich 'nen Integralhelm, darum ist mir nix passiert.
F                        a
  Wer konnte ahnen, dass sie so reagiert?
        F               E             a
Gestern Nacht ist meine Freundin explodiert.


Trillerpfeifen-Interlude:
(Hunderttausendmal wiederholen!)

2:-6-6-6----6--6--6---|
3:-------4----------4-|


Bridge:
          F                          C
Als meine erste große Liebe ganz spontan in Flammen stand,
F         G               C
  Da habe ich noch laut gelacht.
    F                           C
Die nächste wurde dann von Außerirdischen entführt -
F                             E7
  Ich hab' mir nichts dabei gedacht.
    F               G        C
Mit Freundin Nummer drei war es auch bald vorbei.
    F                 G                C
Sie versteinerte, das fand ich ganz normal.
             F           G             C                F
Doch als die vierte explodierte, wurde mir dann langsam klar,
                                             E'
Dass meine Partnerin zu sein wohl nicht ganz ungefährlich war...


Refrain:
EF                         a
   Gestern Nacht ist meine Freundin explodiert,
          F                            E7
ich hatte nicht damit gerechnet, darum bin ich blutverschmiert.
F                        a
  Wer konnte ahnen, dass sie so explodiert?
        F               E
Gestern Nacht ist meine Freundin
        C               D
Gestern Nacht ist meine Freundin
        F               E
Gestern Nacht ist meine Freundin
            C               D
Oh, Gestern Nacht ist meine Freundin
        F               E7            A
Gestern Nacht ist meine Freundin explodiert.


Outro(gespielt mit unverzerrter E-Gitarre):                 Dj7
1:----5--7-/9--7--5------------5----------------------------5-|
2:--5----------------7-5------------------------------------7-|
3:------------------------7b9-----r7------------------------6-|
4:-----------------------------------7-7-5^7^5--------------7-|
5:----------------------------------------------7--5--------5-|
6:----------------------------------------------------8--5--5-|

	
Die Banane
==========
(M: Felsenheimer/T: Felsenheimer/Gonzales)


Anm.: Die E-Gitarre ist verzerrt, während Fill1, des Refrains und des Interludes spielt noch
      eine Akustikgitarre mit
   e   C   D   D4  D9  H7  h   A   f#  E  C#4  C#  e7
1:-0-|-0-|-2-|-3-|-0-|-2-|-2-|-0-|-2-|-0-|---|-4-|-7-|
2:-0-|-1-|-3-|-3-|-3-|-0-|-3-|-2-|-2-|-0-|-7-|-6-|-8-|
3:-0-|-0-|-2-|-2-|-2-|-2-|-4-|-2-|-2-|-1-|-6-|-6-|-7-|
4:-2-|-2-|-0-|-0-|-0-|-1-|-4-|-2-|-4-|-2-|-6-|-6-|-9-|
5:-2-|-3-|---|---|---|-2-|-2-|-0-|-4-|-2-|-4-|-4-|-7-|
6:-0-|---|---|---|---|---|---|---|-2-|-0-|---|---|---|


Intro:
2x:
   e       C         e       D D4 D D9
1:-----------------|---------2-3--2-0-|
2:---0---------1---|---0-----3-3--3-3-|
3:-----0-----0---0-|-----0---2-2--2-2-|
4:-----------------|-------0-0-0--0-0-|
5:-------0-3-------|------------------|
6:-0---------------|-0----------------|


1.Strophe (Gedämpft):
e             C              e
  Wir kannten uns noch nicht lange,
     C            e            C           e   D D4 D D9
Drum war mir auch bange - vorm Treffen mit ihr.
e             C           e
  Sie war ein traumhaftes Mädchen,
     C        e              C         e       D D4 D D9
Kein Doofie & Blödchen - wir gingen spazier'n.
e           C         e          C          e         C         e    D D4 D D9
  Ein Essen bei Kerzenschein - Romantik und Wein - so sollte es sein.

e              C           e
  Der Wein war nicht zu verachten,
    C             e              C            e     D D4 D D9
Wir scherzten und lachten - mein Charme war erprobt.
e           C            e
  Das Essen war wirklich klasse,
    C            e        C          e    D D4 D D9
Zum Abschluß 'ne Tasse Kaffee, etwas Obst.
e       C       e    D D4 D D9  e(Fill1) C            H7
  Unser Glück gedieh'     -         doch dann schälte sie...


Fill1:
   e        C        H7
1:-----------------|-------------2------2-|
2:-----------------|---------0------0-----|
3:-------0------0--|------2----2------2---|
4:-2---2------2----|---1------------------|
5:---2------3------|-2--------------------|
6:-----------------|----------------------|


Refrain (Mit Begleitung):
G    f# e           h
Schälte sie - 'ne Banane,
       D                       A
Mein Gehirn wurde plötzlich zu Sahne.
    A G   f#  e          h
Oh, Baby, sie aß - die Banane,
        D                    A         A  G  f# e  C    e  D D4 D D9   e(Fill2)  C  e  D D4 D D9
Statt Romantik gabs nur noch profane Gefühle in mi-hi-hir.


Fill2:
1:-f12-|
2:-f12-|
3:-f12-|
4:-----|
5:-----|
6:-----|


Begleitung zum Refrain:
   G f# e     h               D           A         A G f# e
1:---------0-|--0-----0--------|-0-----0----|-0---------------2-|
2:---------0-|------3---3---3--|-----3------|-----3-----------2-|
3:---------0-|----4-------4----|---4-----4--|---4-------------2-|
4:-5-4-2---2-|-----------------|------------|-------7-5-4-2---2-|
5:-5-4-2---2-|-----------------|------------|-------7-5-4-2---2-|
6:-3-2-0---0-|-----------------|------------|-------5-3-2-0---0-|
  h               D            A        A G f# e
1:--0-----0--------|-0-----0----|-0--------------|
2:------3---3---3--|-----3------|-----3----------|
3:----4-------4----|---4-----4--|---4------------|
4:-----------------|------------|-------7-5-4-2--|
5:-----------------|------------|-------7-5-4-2--|
6:-----------------|------------|-------5-3-2-0--|
   e       C         e       D D4 D D9  e       C         e       D D4 D D9
1:---0-------0-----|---0-----2-3--2-0-|---0-------0-----|---0-----2-3--2-0-|
2:-----0-------1---|-----0---3-3--3-3-|-----0-------1---|-----0---3-3--3-3-|
3:-------0-------0-|-------0-2-2--2-2-|-------0-------0-|-------0-2-2--2-2-|
4:-----------------|---------0-0--0-0-|-----------------|---------0-0--0-0-|
5:---------3-------|------------------|---------3-------|------------------|
6:-0---------------|-0----------------|-0---------------|-0----------------|


2.Strophe (Gedämpft):
e         C               e
  Meine Beherrschung ging flöten,
         C       e           C                e    D D4 D D9
Ich fing an zu erröten - die Stirn war schweißnass.
e            C         e
  Sie aß langsam und bedächtig,
    C                e               C         e    D D4 D D9
Der Anblick war prächtig - scheinbar hatte sie Spaß.
e      C        e                C       e               C     f#(-->Interlude)
  Also habe ich schnell - mehr Bananen bestellt - alle Bananen der Welt.


Interlude:
f#  D  f#  E
f#  D  f#  E
f#  D  f#  E
f#  D  C#4 C#


3.Strophe (Gedämpft):
e                  C            e
  Ich sprach jetzt nicht mehr geschwollen
              C                              e
Ey, Alter ey, geh'se auf die Weiber holn, verstehste),
       C             e     D D4 D D9
Geifer troff mir vom Kinn.
    e      C                e         C                e          C           e   D D4 D D9
Angewidert ließ sie mich sitzen - ich fing an zu schwitzen, sabberte vor mich hin.
e        C           e   D D4 D D9      e(Fill1)  C              H7
  Wieder sah ich sie nie     -     doch in meinen Träumen schält sie...


Refrain (Mit Begleitung):
G  f#     e           h
Da schält sie - 'ne Banane,
        D                          A
Mein Gehirn, das wird plötzlich zu Sahne.
A     G  f#  e           h
Yeah, Ba-by, iss - die Banane,
        D                      A      A  G  f# e     e7
Statt Romantik regier'n nur profane Gefühle in mir.


Begleitung zum Refrain:
   G f# e     h               D           A         A G f# e
1:---------0-|--0-----0--------|-0-----0----|-0---------------2-|
2:---------0-|------3---3---3--|-----3------|-----3-----------2-|
3:---------0-|----4-------4----|---4-----4--|---4-------------2-|
4:-5-4-2---2-|-----------------|------------|-------7-5-4-2---2-|
5:-5-4-2---2-|-----------------|------------|-------7-5-4-2---2-|
6:-3-2-0---0-|-----------------|------------|-------5-3-2-0---0-|
  h               D            A        A G f# e    e7
1:--0-----0--------|-0-----0----|-0--------------|--7-7-7-7-7--|
2:------3---3---3--|-----3------|-----3----------|--8-8-8-8-8--|
3:----4-------4----|---4-----4--|---4------------|--7-7-7-7-7--|
4:-----------------|------------|-------7-5-4-2--|--9-9-9-9-9--|
5:-----------------|------------|-------7-5-4-2--|--7-7-7-7-7--|
6:-----------------|------------|-------5-3-2-0--|-------------|


Outro-Refrain (Begleitung ab dem '*'):
G   f# e          h
Frauen es - sen Bananen,
     D                     A
Ohne was von den Folgen zu ahnen.
G   f#  e                    h
Für sie ist's nur Nahrungsaufnahme,
        D                    A
Für den Herrn 'ne Fellatio Reklame.

A*  G f#  e         h
Oh, Baby, iss die Banane,
       D                   A
Mein Gehirn besteht eh nur Sahne,
A     G f#  e         h
Yeah, Baby, iss die Banane
          D                            A    A  G    f# e   h   D   A
Scheiss Romantik, hier herrscht nur profane Wollust in mir...
A G f# e       h    D   A
         Die Banane
A G f# e       h    D   A
         Die Banane


Begleitung zum Outro-Refrain
5x:
   A G f# e     h               D           A
1:-----------0-|--0-----0--------|-0-----0----|-0-----|
2:-----------0-|------3---3---3--|-----3------|-----3-|
3:-----------0-|----4-------4----|---4-----4--|---4---|
4:-7-5-4-2---2-|-----------------|------------|-------|
5:-7-5-4-2---2-|-----------------|------------|-------|
6:-5-3-2-0---0-|-----------------|------------|-------|

	
B.S.L.(Brutaler schneller Lärm)
===============================
(M/T: Urlaub)


Anm.:Das Lied wird wird sehr verzerrt gespielt, die Gitarre ist auf Dropped  D gestimmt

Akkorde:
   C   E   D   C4  A   H
1:---|---|---|---|---|---|
2:---|---|---|-6-|---|---|
3:-5-|-9-|-7-|-5-|---|-4-|
4:-5-|-9-|-7-|-5-|-7-|-4-|
5:-3-|-7-|-5-|-3-|-7-|-2-|
6:---|---|---|---|-7-|---|


-Die folgenden Klangbeispiele sind Ergänzungen zum methodischen Aufbau der Textbeilage und dürfen
nicht losgelöst von dieser behandelt werden!

Intro (Fig.1):
C

1:---------------------------
2:---------------------------
3:---------------------------
4:---------------------------
5:------7--5-----------------
6:--/9--------9--8--7--5--0--

Fig.1:

2x
    E         E  D E         E  D E        E  D   C4
1:-------------------------------------------------------------
2:------------------------------------------------6-6-6-6-6-6--
3:--9--x--xx--99-7-9--x--xx--99-7-9--x--xx--99-7--5-5-5-5-5-5--
4:--9--x--xx--99-7-9--x--xx--99-7-9--x--xx--99-7--5-5-5-5-5-5--
5:--7--x--xx--77-5-7--x--xx--77-5-7--x--xx--77-5--3-3-3-3-3-3--
6:-------------------------------------------------------------


1.Strophe(2x Fig.1)

Musik hab ich schon als Kind gern gehört,
die Brüllmöbel an, dass es nur noch so röhrt,
jetzt kann ich kaum noch hörn, meine Ohren sind zerstört.

Die Nachbarn holten immer sofort die Polizei,
ein bisschen zuviel Lärm, was ist denn schon dabei?
wenn es nicht laut ist, ist es auch nicht HIFI.


Refrain(mit Fig.2 ab dem 2x E-A)
    E   A                     E   A
B.S.L. - ich hör so gerne B.S.L.
                      E   A
Tag und Nacht nur B.S.L.
                            E     A
Darfs auch was andres sein? NEIN!
                   H C H C
Leise ist scheiße!


Fig.2:
3x
   E             A(nur Bass)
1:--------------------------
2:--------------------------
3:--9---11--12-11--9--7--9--
4:--------------------------
5:--7----9--10--9--7--5--7--
6:--------------------------

1x
    H C   H C(Nur Bass)
1:----------------
2:----------------
3:--7--9----7--9--
4:----------------
5:--5--7----5--7--
6:----------------


2.Strophe(2x Fig.1):

Die Nachbarn sind leider völlig daneben,
nach dem dritten Hörsturz haben sie aufgegeben,
zum Abschied gab es noch ein Erdbeben.

Wie es weitergeht? Ich hab keinen Schimmer,
wenn ich genervt bin, dreh ich auf in meinem Zimmer,
genervt bin ich eigentlich sowieso immer.


Refrain(mit Fig.2 ab zweitem E-A, das H C wird nur einmal gespielt):
    E   A                     E   A
B.S.L. - ich hör so gerne B.S.L.
                      E   A
Tag und Nacht nur B.S.L.
                            E     A
Darfs auch was andres sein? NEIN!
                   H C  (scratch alle Bünde von oben nach unten)
Leise ist scheiße!


Interlude:
C C A A C C A A 

C               C             A
Mach noch etwas lauter (etwas lauter),
    C                C                A
ein kleines bisschen lauter (bisschen lauter)


Outro-Refrain
(Folgendes Fill kommt vor die Fig.2 anstatt des normalen E-A, ansonsten weiter Fig.2 das
erste Mal nur ohne Ende und der E-Akkord, das zweite Mal vollständig Fig.2 und einmal den 
Akkord E am Ende):

1---12-----------
2:--15b17.......-
3----------------
4----------------
5----------------
6----------------

    E   A                     E   A
B.S.L. - ich hör so gerne B.S.L.
                      E   A
Tag und Nacht nur B.S.L.
                            E     A
Darfs auch was andres sein? NEIN!
    E   E  E  E EEEEEEE
B.S.L.          (Aaaahhhhh....)
    E   A                     E   A
B.S.L. - ich hör so gerne B.S.L.
                      E   A
Tag und Nacht nur B.S.L.
                            E     A
Darfs auch was andres sein? NEIN!
                  H C H C
Leise ist scheiße!
    E
B.S.L


Die traurige Ballade von Susi Spakowski
=======================================
(M/T: Felsenheimer)


Anm.: Die Gitarre ist immer verzerrt
   H   g#  E   F#  G   E' F#'  H'
1:---|---|---|---|---|-0-|-2-|---|
2:---|---|---|---|---|-0-|-2-|-4-|
3:-4-|---|---|---|---|-1-|-3-|-4-|
4:-4-|-6-|-2-|-4-|-5-|-2-|-4-|-4-|
5:-2-|-6-|-2-|-4-|-5-|-2-|-4-|-2-|
6:---|-4-|-0-|-2-|-3-|-0-|-2-|---|



Intro:
(erst spielt nur Bass, dann spielt die Gitarre folgendes):                   

-Punker, ich meine, das sind doch nicht ausschließlich unterpriviligierte aus den Ghettos

h(nur Bass)                            G                                   e        F#        h
1:-----------------------------------|-----------------------------------|----------------------|
2:-----------------------------------|-----------------------------------|----------------------|
3:-11^12-12-12-12-11-11-11-9-9-11-11-|-11^12-12-12-12-11-11-11-9-9-11-11-|-9^11--9--7^9-7--6--4~|
4:-----------------------------------|-----------------------------------|----------------------|
5:-----------------------------------|-----------------------------------|----------------------|
6:-----------------------------------|-----------------------------------|----------------------|


1.Strophe (Bass bis zur Markierung; dann gedämpft):
H
Susi war fürn Mädchen wirklich nich schön,
      g#
Darum haben auch alle immer weggesehn.
          E                              F#                   H       F#
Und jetzt ist es zu spät, jetzt kann man nichts mehr für Susi tun, uououh
          E                              F#                  H(Git. setzt ein)
Und jetzt ist es zu spät, jetzt kann man nichts mehr für sie tun.

        H
Für die Jungs in der Schule war sie der letzte Dreck
    g#
Bei manchen allerdings auch Mittel zum Zweck
          E                          F#         g#     F#
& für ein bisschen Zärtlichkeit ließ Susi alles zu, uououh
          E                          F#         H
& für ein bisschen Zärtlichkeit ließ Susi alles zu.


Refrain (ungedämpft):
G                  H
   Ihre Mutter war schon lange tot
F#                   H     Fill1
  & der Vater nur im Suff
G                             H
  & nachts nahm Papi sich die Susi vor
        E'       Fill2  F#'     H'
Das war billiger        als der Puff!
        E'       Fill2  F#'     H'
Das war billiger        als der Puff!

Fill1:         Fill2:
1:-----------| |-0-----|
2:-----------| |---0---|
3:-4/6/4/6/4-| |-----1-|
4:-4/6/4/6/4-| |-------|
5:-2/4/2/4/2-| |-------|
6:-----------| |-------|


Interlude:
   h(nur Bass)                         G                                       H
1:-----------------------------------|-----------------------------------|-------|
2:-----------------------------------|-----------------------------------|-------|
3:-11^12-12-12-12-11-11-11-9-9-11-11-|-11^12-12-12-12-11-11-11-9-9-11-11-|-9^8---|
4:-----------------------------------|-----------------------------------|-----9-|
5:-----------------------------------|-----------------------------------|-------|
6:-----------------------------------|-----------------------------------|-------|


2.Strophe (Bass bis zur Markierung; dann gedämpft):
H                           g#
Susi suchte Hilfe bei - den Lehrern und der Polizei,
     E                       F#              H        F#
aber niemand hilft Dir, wenn Du der Abschaum bist, uououh,
         E                       F#          H
wirklich niemand hilft Dir, wenn Du wie Susi bist.

  H
& immer größer wurde der Schmerz
   g#
Da fasste Susi sich ein Herz
     E              F#          g#      F#
& so kam es so, wie es gekommen ist, uououh
     E             F#          H
& so kam es so wie es gekommen ist.


Refrain:
G                          H
  Was Susi abends dann mit Vati tat
F#                         H    Fill1
  Nennt man gemeinhin Kastation
G                        H
  Zündete ihn & dann die Schule an
  E'           Fill2 F#'    H'
& stürzte sich       vom Balkon
  E'           Fill2 F#-Fill H'
& stürzte sich       vom Bal-kon.

F#-Fill:
1:-----------14-----|
2:---------14--14---|
3:-------15------15-|
4:-----16-----------|
5:---16-------------|
6:-14---------------|


Solo:
   h(nur Bass)                         G
1:-----------------------------------|-----------------------------------|
2:-----------------------------------|-----------------------------------|
3:-11^12-12-12-12-11-11-11-9-9-11-11-|-11^12-12-12-12-11-11-11-9-9-11-11-|
4:-----------------------------------|-----------------------------------|
5:-----------------------------------|-----------------------------------|
6:-----------------------------------|-----------------------------------|
   e                       F#                       h
1:------------------------------------------------|-----------------------------------|
2:----------------------------11-11-12-12-11-11-0-|-----------------------------------|
3:-11^12-12-12-12-11-11-11-11---------------------|-11^12-12-12-12-11-11-11-9-9-11-11-|
4:------------------------------------------------|-----------------------------------|
5:------------------------------------------------|-----------------------------------|
6:------------------------------------------------|-----------------------------------|
   G                                   e                    F#                          H
1:-----------------------------------|--------------------------------11/12--11--12--11------|
2:-----------------------------------|-12-----12-----12-12--14--------------------------12~~-|
3:-11^12-12-12-12-11-11-11-9-9-11-11-|-----11-----11------------11-11------------------------|
4:-----------------------------------|-------------------------------------------------------|
5:-----------------------------------|-------------------------------------------------------|
6:-----------------------------------|-------------------------------------------------------|


3.Strophe (Hier spielt nur Klavier):
    H
Wer glaubt, dass sie jetzt in Frieden ruht
    g#
der kennt die Bibel nich sehr gut,
         E                  F#               H       g#
denn für Mord, da gibts bei Christen kein Pardon, uououh
         E          G      F#   c#
& in der Hölle wartete der Vati schon.

	
Red mit mir
===========
(M/T: Urlaub)

Anm.: Verzerrte E-Gitarre; nur Ej7 ist clean und mit Hall
  Ej7  g#  C#  E   H   F#   F#4  F#5  Eb
1:-7-|-4-|-4-|-7-|-2-|-9--|----|----|-6-|
2:-9-|-4-|-6-|-9-|-4-|-11-|-12-|----|-8-|
3:-8-|-4-|-6-|-9-|-4-|-11-|-11-|-11-|-8-|
4:-9-|-6-|-6-|-9-|-4-|-11-|-11-|-11-|-8-|
5:-7-|-6-|-4-|-7-|-2-|-9--|-9--|-9--|-6-|
6:---|-4-|---|---|---|----|----|----|---|


Intro:
1x:                                 4x:
    Ej7                              g#      C#4     C#      C#4
1:-----------7---------------------|-4--4----2--2----1--1----2--2-3-|
2:--9--------9--------9---------9--|-4--4----2--2----2--2----2--2-2-|
3:--8--------8--------8---------8--|-1--1----1--1----1--1----1--1-1-|
4:--9--------9--------9---------9--|--------------------------------|
5:--7--------7--------7---------7--|--------------------------------|
6:---------------------------------|--------------------------------|
                              Ungefähr hier wird eine zweite verzerrte E-Gitarre langsam lauter
                              mit dem Ton G#
2x:
    g#     C#        E          H    g#     C#       E           H
1:---------7---7-6-7-7^9---7-6--7-|---------7---7-6-7-7^9---7-6--7---|
2:--9----9------------------------|--9----9------------------------7-|
3:--------------------------------|----------------------------------|
4:--------------------------------|----------------------------------|
5:--------------------------------|----------------------------------|
6:--------------------------------|----------------------------------|


1.Strophe:
     g#          C#                E              H 
Wenn Du was zu erzählen hast, dann hör' ich gerne zu.
g#             C#                E              H
Sechs Semester lauschen, dritter Dan Gehör Kung Fu.
        g#            C#             E              H
Hast Du Sorgen und Probleme, ja, das kommt im Leben vor.
    g#            C#                E                  H 
Die Welt ist so gemein zu Dir, doch ich leih' Dir mein Ohr
     g#            E            H             F#
Fang einfach an zu reden, lass' endlich alles raus.
g#         E                H              F#   F#4 F# F#5  E
Eine Runde Mitleid geb' ich Dir doch gerne aus.


2.Strophe:
   g#                  C#                E               H
Du sprichst von Deiner Kindheit, das ist wirklich interessant.
    g#           C#                E             H
Ich nicke, wo es sein muss und ich lausche Dir gebannt.
        g#            E                  H                  F#    F#4 F#
Ich bin völlig Deiner Meinung, Du liegst wirklich ganz weit vorn.
F#5 g#              E             H               F#   F#4
Ich häng' an Deinen Lippen und Du kaust an meinem Ohr.
F#  F#5 g#                  E              H           F#    F#4 F#
Ich hab eh' nichts besseres vor, also geh' bitte ins Detail.
F#5 g#               E                H               F#    F#4 F#
Es  ist ja grad' mal Mitternacht, und morgen hab' ich frei.
F#5 g#              C#         E               H
Du  suchst nach Mr. Listen, er steht genau vor Dir.
C#                    Eb   E     Eb E Eb E  Eb  E   E(-->Interlude)
  Lass mich Dein Therapeut sein, bitte      red mit mir


Interlude:
1x:                                 2x:
    Ej7                              g#      C#4     D#7     C#4
1:-----------7---------------------|-4--4----2--2----1--1----2--2-|
2:--9--------9--------9---------9--|-4--4----2--2----0--0----2--2-|
3:--8--------8--------8---------8--|-1--1----1--1----1--1----1--1-|
4:--9--------9--------9---------9--|------------------------------|
5:--7--------7--------7---------7--|------------------------------|
6:---------------------------------|------------------------------|

2x:
    g#     C#        E          H    g#     C#       E           H
1:---------7---7-6-7-7^9---7-6--7-|---------7---7-6-7-7^9---7-6--7---|
2:--9----9------------------------|--9----9------------------------7-|
3:--------------------------------|----------------------------------|
4:--------------------------------|----------------------------------|
5:--------------------------------|----------------------------------|
6:--------------------------------|----------------------------------|


3.Strophe:
    g#           C#           E               H
Hey Du ich finde wirklich, Du bist echt total nett.
     g#               C#                 E                H
Bist nicht so wie die anderen, Du willst nicht sofort ins Bett.
    g#                  C#            E              H
Ich find' Dich ziemlich dufte, Du und irgendwie auch toll.
    g#            C#                     E              H
Und weil Du so sympathisch bist, quatsch ich Dich total voll.
g#               E               H            F#  F#4
Niemand will mir zuhören und das prangere ich an.
F#  F#5 g#             E          H                F#    F#4 F# F#5  E
Mit Dir kann ich prima labern, Du bist echt super, Mann!


4.Strophe:
g#              C#      E              H
Lass mich Dir erzählen, hast Du schon gewusst?
   g#                C#               E           H
Es gibt da noch 'ne Kleinigkeit, die Du erfahren musst.
g#               E                    H               F#     F#4 F#
Hab ich Dir denn eigentlich schon von meinem Freund erzählt?
F#5 g#                 E               H                F#    F#4 F#
Ich fahr' nachher noch zu ihm, weil er mir doch langsam fehlt.
F#5 g#                  E               H               F#      F#4 F#
Ob--wohl er nur schnell tackern will, danach ist sofort Schicht.
F#5 g#           E                 H                F#    F#4 F#
Und ob ich zum Orgasmus komm', das interessiert ihn nicht.
F#5  g#              C#               E                  H
Wenn ich dann wieder reden will, dann meld' ich mich bei Dir.
C#                   Eb                    E     F#
   Du bist ein prima Kumpel, bitte red mit mir.


Interlude:
   g#      C#    E      H
1:---------------------------|
2:---------------------------|
3:---------------------------|
4:---------------------------|
5:-----6-5-4--4--7-7-7-------|
6:-4-3------------------7--6-|


Outro (Dazwischen singt ein Backgroundchor "Red mit mir!"):
g#      C#    E  H     g#      C#    E  H
Red mit mir,     bitte red mit mir...
g#      C#    E   H     g#     C#    E  H
Red mit mir,     bitte red mit mir...

Ab hier Outro-Solo:

g#      C#   E        H      g#      C#    E  H
Red mit mir,   bitte, bitte, red mit mir...      Komm, komm schon
g#      C#    E  H     g#      C#    E  H
Red mit mir,     Baby, red mit mir...
g#      C#   E      H     g#      C#    E  H
Red mit mir,   au,  bitte, red mit mir...
g#      C#   E            H     g#      C#    E  H
Red mit mir,    die ganze Nacht lang,
g#
Red mit mir, red mit mir,      Red mit mir!

Outro-Solo:
1:--------------------|------------|--------------------------------------|
2:--------------------|------------|-9-9-7-7---7--------------------------|
3:--6b8r6-4---4---4-6-|--6b8r6-4---|---------8---8-6-4-6-6b8r6-4-6b8r6-4--|
4:--------------6-----|------------|--------------------------------------|
5:--------------------|------------|--------------------------------------|
6:--------------------|------------|--------------------------------------|
    r.m.  m.   b.t.      r.m.  m.
1:---------------------|----------------|----------------|----------------|----------------|
2:---------16----------|----16----------|----16----------|----16----------|----16-------17-|
3:------------16----16-|-------16----16-|-------16----16-|-------16----16-|-------16-------|
4:-18-18---------18----|-18-------18----|-18-------18----|-18-------18----|-18-------18----|
5:---------------------|----------------|----------------|----------------|----------------|
6:---------------------|----------------|----------------|----------------|----------------|

1:----------------|-------------------|-------------------|-------------------|
2:----16----------|----16-------17----|----16-------17----|----16-------17----|
3:-------16----16-|-------16-------16-|-------16-------16-|-------16-------16-|
4:-18-------18----|-18-------18-------|-18-------18-------|-18-------18-------|
5:----------------|-------------------|-------------------|-------------------|
6:----------------|-------------------|-------------------|-------------------|

1:---------------------|---------------|
2:----16--------16--16-|--19b21--19b21-|
3:-------16-16---------|---------------|
4:-18------------------|---------------|
5:---------------------|---------------|
6:---------------------|---------------|

1:-16----16----16----|-19^16-19^16---------------------------------|
2:-19b21-19b21-19b21-|-------------19-17-19-17-19b21-19--16--------|
3:-------------------|--------------------------------------18--16-|
4:-------------------|---------------------------------------------|
5:-------------------|---------------------------------------------|
6:-------------------|---------------------------------------------|

1:-----------16------------16------------16------------16-|
2:--------16------------16------------16------------16----|
3:-18b20---------18b20---------18b20---------18b20--------|
4:--------------------------------------------------------|
5:--------------------------------------------------------|
6:--------------------------------------------------------|

1:------------------------------------------|
2:-12--14-12------12------------------------|
3:------------13-----13--11-13~----11---13--|
4:------------------------------------------|
5:------------------------------------------|
6:------------------------------------------|
                                    r.m. m.
1:-------------------16----------16----------16----------16--------------16-------|
2:----------------16----------16----------16----------16--------------16----------|
3:-16-18-16-18b20-------18b20-------18b20-------18b20-----------18b20-------18-16-|
4:--------------------------------------------------------------------------------|
5:--------------------------------------------------------------------------------|
6:--------------------------------------------------------------------------------|
                                                                            Gitarre klingt aus


Trick 17 m.S. (mit Selbstüberlistung)
=====================================
(M/T: Urlaub)

Anm.: Im Refrain wird Akustikgitarre und Tenorbanjo (Stimmung: CGDA) gespielt,
      Ansonsten verzerrte E-Gitarre
   F#  A   H6  H   Db  D   E   F#'  f#
1:-2-|-5-|-4-|-2-|-4-|-5-|-7-|-9--|-2-|
2:-2-|-5-|-4-|-4-|-6-|-7-|-9-|-11-|-2-|
3:-3-|-6-|-4-|-4-|-6-|-7-|-9-|-11-|-2-|
4:-4-|-7-|-4-|-4-|-6-|-7-|-9-|-11-|-4-|
5:-4-|-7-|-2-|-2-|-4-|-5-|-7-|-9--|-4-|
6:-2-|-5-|---|---|---|---|---|----|-2-|


"Joa, grützinesen!"

Intro:

(ohne Akkorde):
Fig.0:
1:-------------------------------|--------------------------------|
2:-------------------------------|----------------4b5r4-----------|
3:-------2---2-4--4-4-b5r4-2-----|-------2---2-4--4b5r4-2-4-2-----|
4:-4--4----4-----------------4-2-|-4--4----4------------------4-2-|
5:-------------------------------|--------------------------------|
6:-------------------------------|--------------------------------|


Fig.1:                            Fig.2                            Fig.3:
   F#    A     H6                  F#    A     H6                    H
1:-------------------------------|--------------------------------|
2:-------------------------------|----------------4b5r4-----------|
3:-------2---2-4--4-4-b5r4-2-----|-------2---2-4--4b5r4-2-4-2-----|
4:-4--4----4-----------------4-2-|-4--4----4------------------4-2-|
5:-------------------------------|--------------------------------|
6:-------------------------------|--------------------------------|


Ablauf Intro:
Fig.0 0

Fig.1 2 1 2 3

Fig.1 2 3

Fig.1 2


1.Strophe:
F#                        H                                Db
  Ich bin ein echter Taugenichts, ein Tagedieb, ein Tunichtgut.
                             F#(Fig.1)  A H6
Bei mir ist Schmalhans Küchenmeister.
F#                       H                              Db
  Ich habe einen kleinen Hund, der pinkelt mir die Bude voll.
                                   F#(Fig.2)  A H6
Wenn ich ihn streicheln will, dann beißt er.

D             D            E       E   F#'
  Mein Leben,   mein Leben   ist total da-neben.
D                         Db
  Ich habe nur noch einen Wunsch:


Refrain:
         A                 f#      E                 A            E Eb E
Ich will sterben, ich will sterben - ja, ich sag auf Wiedersehn'.
         A                 f#      E                        A      E Eb E
Ich will sterben, ich will sterben - so kann es nicht weitergehn'.


Banjo-Begleitung (Die Schlagtechnik müsst ihr selbstrausfinden, ist aber leicht):
   A   f#  E   A    E Eb E
1:-------------------------|
2:-7---4---6---7----6--5-6-|
3:-6---2---4---6----4--3-4-|
4:-4---1---4---4----4--3-4-|


Interlude:
Fig.0 0

Fig.1 2 3  Fill: 1:----21-17-|
                 2:-19-------|
Fig.1 2


2.Strophe:
F#                        H
   Ich begieß mich mit Benzin und zünd mich an.
               Db                               F#(Fig.1) A H6
Ich häng' mich auf, stech mir ein Messer in den Magen.
F#                            H
  Jag mir 'ne Kugel durch den Kopf,
                               Db
Ich schneid' mir die Pulsadern durch.
                              F#(Fig.2) A H6
Ich kann es hier nicht mehr ertragen.

D              D             E         E    F#'
  Mein Dasein,   mein Dasein   darf einfach nicht wahr sein.
D                         Db
  Ich habe nur noch einen Wunsch:


Refrain:
         A                 f#      E                        A      E Eb E
Ich will sterben, ich will sterben - so kann es nicht weitergehn'.
         A                 f#      E                         A      E Eb E
Ich will sterben, ich will sterben - jetzt im Grab, das wäre schön.


Banjo-Begleitung:
                    A                           f#
1:----------------|--------------------------|--------------------------|
2:--2-2--4-4--6-6-|-7--7--9-7--9--7-7--7-7-7-|-4--4--4-4--4--4-4--4-4-4-|
3:----------------|-6--6--6-6--6--6-6--6-6-6-|-2--2--2-2--2--2-2--2-2-2-|
4:----------------|-4--4--4-4--4--4-4--4-4-4-|-1--1--1-1--1--1-1--1-1-1-|
   E                          A                                    E   Eb E
1:-----------------2-2-2-0-0------------------------------------|-----------|
2:-4-4--4--6--4--2------------7-7--6-6--4-4--2-2--4-4--2--------|--6---5--6-|
3:-------------------------------------------------------6--4-2-|--4---3--4-|
4:--------------------------------------------------------------|--4---3--4-|
   A                           f#
1:--------------------------|--------------------------|
2:-7--7--9-7--9--7-7--7-7-7-|-4--4--4-4--4--4-4--4-4-4-|
3:-6--6--6-6--6--6-6--6-6-6-|-2--2--2-2--2--2-2--2-2-2-|
4:-4--4--4-4--4--4-4--4-4-4-|-1--1--1-1--1--1-1--1-1-1-|
   E                         A                   E   Eb E
1:---------------------2--2-------------------------------|
2:-4-4--4-4-4-6-6-6-6--------7-7--6-6--4-4--2-2--6---5--6-|
3:-----------------------------------------------4---3--6-|
4:-----------------------------------------------4---3--4-|


Interlude (nur Powerchords; gedämpft):
f#   A   H   D E
f#   A   H   D E


Outro:
    f#                      A
Die Welt ist schlecht, alle hassen mich.
    H                       D      E
Die Welt ist schlecht, alle hassen mich.
    f#                      A
Die Welt ist schlecht, alle hassen mich.
    H                       D      E
Die Welt ist schlecht, alle hassen mich.
    f#                      A
Die Welt ist schlecht, alle hassen mich.
    H                       D      E
Die Welt ist schlecht, alle hassen mich.
    f#                      A
Die Welt ist schlecht, alle hassen mich.
    H                           D      E
Die Welt ist schlecht, und alle hassen mich.

f#        A    H         D    E      f#
Ooohohoooohoho Ooohohoooohooooho
                    (und alle hassen mich.)
          A    H         D    E      f#
Ooohohoooohoho Ooohohoooohooooho
                    (und alle hassen mich.)
          A    H         D    E      f#
Ooohohoooohoho Ooohohoooohooooho
                    (und alle hassen mich.)
          A    H         D    E   f#  A  H  D  E  f#(fdk.)
Ooohohoooohoho Ooohohoooohooooho


Opfer
=====
(M/T: Urlaub)


Anm.: Akkorde
   E   C    A#  G   F#  F   A   D
1:---|----|---|---|---|---|---|----|
2:---|----|---|---|---|---|---|----|
3:-9-|----|---|---|---|---|---|----|
4:-9-|-10-|-8-|-5-|-4-|-3-|-7-|-12-|
5:-7-|-10-|-8-|-5-|-4-|-3-|-7-|-12-|
6:---|-8--|-6-|-3-|-2-|-1-|-5-|-10-|



Intro:

-Waffenkontrolle ist für Babies und Kommunisten.
 Hören Sie, damit eines ganz klar ist: Waffen bringen niemand um...aber ich!!!

In den Tiefen mancher Seele tun sich Abgründe auf.
Schlechte Menschen, Missetäter gab es immer zuhauf.
Räuber und Banditen, Mörder auch sogar!
Dies ist jetzt das Lied von einem, der hier König war.
Dies ist jetzt das Lied von einem, der hier König war.


1.Strophe:
E            C      E            A#
Ich verkaufe Terror Ich verkaufe Tod
E               C              E              A#
Elend, Leid und Schmerzen sind bei mir im Angebot
    E          C          E             A#
Ich biete eine Lösung für fast jedes Problem 
E            C             E            A#
Effektiv, präzise, sauber, billig und bequem


Bridge:
G F# F     E
       Ich exportiere in die ganze Welt
G F# F     E
       Die Aktien steigen das ist es was zählt


Refrain:
A               C               D
Ich bin nur ein Opfer des Kapitalismus
A               C               D
Ich bin nur ein Opfer des Kapitalismus


Interlude(2x):
   E               C               A#              A
1:---------------|---------------|---------------|---------------|
2:---------------|---------------|---------------|---------------|
3:---------11-12-|---------11-12-|---------11-12-|---------12-11-|
4:-----14--------|-----14--------|-----14--------|-----14--------|
5:-14------------|-15------------|-13------------|-12------------|
6:---------------|---------------|---------------|---------------|


2.Strophe:
   E                 C                 E             A#
Es kommt nur auf den Standpunkt an von dem man sowas sieht
E               C     E               A#
Denk' an die Rendite, denk' an den Profit
   E             C          E              A#
An jedem zweiten Krüppel verdien' ich eine Mark
    E             C             E                A#
Und wenn er am Krepieren ist verkauf ich ihm den Sarg


Bridge:
G F# F E
       Red' nicht dauernd von Moral
G F# F   E
       Woher das Geld kommt ist doch egal


Doppelrefrain:
A               C               D
Ich bin nur ein Opfer des Kapitalismus
A               C               D
Ich bin nur ein Opfer des Kapitalismus
A               C               D
Ich bin nur ein Opfer des Kapitalismus
A               C               D
Ich bin nur ein Opfer des Kapitalismus


Begleitung zum Doppelrefrain:
1x:
   A                       C                        D
1:--------------------------------------------------17--19---|
2:-17-17-17-17-17-17-17-17-20-20-20-20-20-20-20-20-----------|
3:-----------------------------------------------------------|
4:-----------------------------------------------------------|
5:-----------------------------------------------------------|
6:-----------------------------------------------------------|


Outro:

2x:
   E               C               A#              A
1:---------------|---------------|---------------|---------------|
2:---------------|---------------|---------------|---------------|
3:---------11-12-|---------11-12-|---------11-12-|---------12-11-|
4:-----14--------|-----14--------|-----14--------|-----14--------|
5:-14------------|-15------------|-13------------|-12------------|
6:---------------|---------------|---------------|---------------|

Dann 2x(Git.2 oben, Git.3 unten; Gitarre 1 spielt Akkorde)
|   E               C               A#              A             |
|1:---------------|---------------|---------------|---------------|
|2:---------------|---------------|---------------|---------------|
|3:---------11-12-|---------11-12-|---------11-12-|---------12-11-|
|4:-----14--------|-----14--------|-----14--------|-----14--------|
|5:-14------------|-15------------|-13------------|-12------------|
|6:---------------|---------------|---------------|---------------|
|                 |               |               |               |
|1:---------------|---------------|---------------|---------------|
|2:-----12--13-12-|-----12--13-12-|-----12--13-12-|-----13--13-15-|
|3:-12------------|-12------------|-12------------|-12------------|
|4:---------------|---------------|---------------|---------------|
|5:---------------|---------------|---------------|---------------|
|6:---------------|---------------|---------------|---------------|

   E
1:-(12)-|
2:--12--|
3:--9---|
4:--9---|
5:--7---|
6:--0---|

-Ich muss weg, es war wild und wunderbar punkig, hä, Ciao!

**********************************************************	
*Diese Tabs wurden von www.Debil-Tabs.de.vu runtergeladen*
**********************************************************


	
	



	
comments
We did not receive enough feedback on this tab! Please rate:
print report bad tab
1 2 3 4 5
I want to post or [tab]
guest
You may want to rate the tab now too:
select rating
Please do not post tabs as comments. Select "correction" instead!