Oops, an error
Loading. Please wait.

Internal Revolution Tab

ver1
ver1

Whole song

Interactive

More versions @911Tabs.com
1,196 views 1 this week
no commentswrite comment
1 2 3 4 5
excellent!
x 2
Autoscroll
+/-
esc
set tempo
stop
Contributor
WARNING: You are trying to view
                                    content from Ultimate-Guitar.com
                                    in an unauthorized application,
                                    which is prohibited.

                                    Please use an official Ultimate
                                    Guitar Tabs application for iPhone,
                                    iPad or Android to access legitimate
                                    chords, guitar, bass, and drum tabs
                                    from Ultimate-Guitar.com database.

                                    Type "ultimate guitar tabs" in Apple
                                    App Store's or Android Market's
                                    search to find the application.
Internal Revolution
Diecast

Tabbed by : Pete_KC

Tunning : 2 step down (C F A# D# G C)

Intro (00:00)
Gtr 1
||----------------------------|-----------------------------|
||----------------------------|-----------------------------|
||----------------------------|-----------------------------|
||----------------------------|-----------------------------|
||------7-----7-----7--9--10--|-----7-----7-----10--9--10---|
||---0-----0-----0------------|--0-----0-----0--------------|
|    -     -     -               -     -     -
|Gtr 2
||----------------------------|-----------------------------|
||----------------------------|-----------------------------|
||----------------------------|-----------------------------|
||---2------------------------|--2--------------------------|
||---2------------------------|--2--------------------------|
||---0------------------------|--0--------------------------|

 Gtr 1
|----------------------------|-----------------------------|
|----------------------------|-----------------------------|
|----------------------------|-----------------------------|
|----------------------------|--9--------------------------|
|------7-----7-----7--9--10--|--9--------------------------|
|---8-----8-----8------------|--7--------------------------|
|   -     -     -
|Gtr 2
|----------------------------|-----------------------------|
|----------------------------|-----------------------------|
|----------------------------|-----------------------------|
|---10-----------------------|--9--------------------------|
|---10-----------------------|--9--------------------------|
|---8------------------------|--7--------------------------|

 Gtr 1
|------|---------------------------||
|------|---------------------------||
|------|---------------------------||
|------|---------------------------||
|------|--0h10h14-0h9h12-0h10h14---||
|------|---------------------------||
|
|Gtr 2
|------|---------------------------||
|------|---------------------------||
|------|---------------------------||
|------|---------------------------||
|------|--0h7h10-0h6h9-0h7h10------||
|------|---------------------------||

Main Riff (00:07) (4X)
 Gtr 1 & 2
||----------------------------|-----------------------------|
||:---------------------------|-----------------------------|
||----------------------------|-----------------------------|
||----------------------------|-----------------------------|
||:-----7-----7-----7--9--10--|-----7-----7-----10--9--10---|
||---0-----0-----0------------|--0-----0-----0--------------|
     -     -     -               -     -     -  
 Gtr 1
|----------------------------|-----------------------------|
|----------------------------|-----------------------------|
|----------------------------|-----------------------------|
|----------------------------|-----------------------------|
|------7-----7-----7--9--10--|-----6-----9--0h10h14-0h9h12-|
|---8-----8-----8------------|--7-----7--------------------|
|   -     -     -               -     -
|Gtr 2
|----------------------------|-----------------------------|
|----------------------------|-----------------------------|
|----------------------------|-----------------------------|
|----------------------------|-----------------------------|
|------7-----7-----7--9--10--|-----6-----9--0h7h10-0h6h9---|
|---8-----8-----8------------|--7-----7--------------------|
    -     -     -               -     -  
Gtr 1 & 2
|----------------------------|-----------------------------|
|----------------------------|-----------------------------|
|----------------------------|-----------------------------|
|----------------------------|-----------------------------|
|------7-----7-----7--9--10--|-----7-----7-----10--9--10---|
|---0-----0-----0------------|--0-----0-----0--------------|
    -     -     -               -     -     -
Gtr 1
|----------------------------|--------------------------||
|----------------------------|-------------------------:||
|----------------------------|--------------------5-----||
|----------------------------|-----------7--4--7--------||
|------3-----3-----3-----3/--|--6~---------------------:||
|---5-----5-----5-----5------|--------------------------||
|   -     -     -     -                  -  -  -
|Gtr 2
|----------------------------|--------------------------||
|----------------------------|-------------------------:||
|----------------------------|--------------------------||
|----------------------------|--------------------7-----||
|------3-----3-----3-----3/--|--6~-------9--6--9-------:||
|---5-----5-----5-----5------|--------------------------||
    -     -     -     -                  -  -  -

 Gtr 1 (00:46)
|----------------------------|-------------|
|----------------------------|-------------|
|------------5-----------5---|-------------|
|---7--4--7-----7--4--7------|--7----------|
|----------------------------|-------------|
|----------------------------|-------------|
|   -  -  -     -  -  -         -
|Gtr 2
|----------------------------|-------------|
|----------------------------|-------------|
|----------------------------|-------------|
|------------7-----------7---|-------------|
|---9--6--9-----9--6--9------|--9----------|
|----------------------------|-------------|
    -  -  -     -  -  -         -

Riff 1 (00:49) (4X)
Gtr 1 & 2
||---------------------------|---------------------------|
||:--------------------------|---------------------------|
||------5--------------------|---------------------------|
||------------9-----7-----5--|-----9-----7-----5---------|
||:--0-----0-----0-----0-----|--0-----0-----0-----0--9---|
||---------------------------|---------------------------|
     -     -     -     -        -     -     -     -  
 Gtr 1
|------------------------------|-------------------------------|
|------------------------------|-------------------------------|
|------------------------------|-------------------------------|
|------------------------------|-----------------------7-------|
|------10-----9-----7-----9----|-----10-----10--9--10-----10---|
|---0------0-----0-----0-------|--0------0---------------------|
|   -      -     -     -          -      -
|Gtr 2
|------------------------------|------------------------------||
|------------------------------|-----------------------------:||
|------------------------------|------------------------------||
|------------------------------|------------------------------||
|---2-2-2-2-2--2-2-2-2-2-2-2-2-|-2-2-2-2-2--2-2-2-2-2-2-2-2--:||
|---0-0-0-0-0--0-0-0-0-0-0-0-0-|-0-0-0-0-0--0-0-0-0-0-0-0-0---||
    - - - - -  - - - - - - - -   - - - - -  - - - - - - - -

 Gtr 1 & 2 (01:06)
|---------------------------|-------------------------|
|---------------------------|-------------------------|
|---------------------------|-------------------------|
|---9--9--9--9--9--9--9--9--|--10-10-10-10-10---------|
|---9--9--9--9--9--9--9--9--|--10-10-10-10-10---------|
|---7--7--7--7--7--7--7--7--|--8--8--8--8--8----------|


Not sure about this part
Chorus (01:09) (2X)
 Gtr 1 
||---15p12p8h12h15p12p8h12h15p12p8h12h15p12p8h12---|
||:------------------------------------------------|
||-------------------------------------------------|
||-------------------------------------------------|
||:------------------------------------------------|
||-------------------------------------------------|
|
|Gtr 2
||-------------------------------------------------|
||:------------------------------------------------|
||-------------------------------------------------|
||---2---------------------------------------------|
||:--2---------------------------------------------|
||---0---------------------------------------------|

Gtr 1
|---15p12p8h12h15p12p8h12h15p12p8h12h15p12p8h12---|
|-------------------------------------------------|
|-------------------------------------------------|
|-------------------------------------------------|
|-------------------------------------------------|
|-------------------------------------------------|
|
|Gtr 2
|-------------------------------------------------|
|-------------------------------------------------|
|-------------------------------------------------|
|---5---------------------------------------------|
|---5---------------------------------------------|
|---3---------------------------------------------|

Gtr 1
|---14p11p7h11h14p11p7h11h14p11p7h11h14p11p7h11---|
|-------------------------------------------------|
|-------------------------------------------------|
|-------------------------------------------------|
|-------------------------------------------------|
|-------------------------------------------------|
|
|Gtr 2
|-------------------------------------------------|
|-------------------------------------------------|
|-------------------------------------------------|
|---1---------------------------------------------|
|---2---------------------------------------------|
|---3---------------------------------------------|

Gtr 1
|---14p11p7h11h14p11p7h11h14p11p7h11h14p11p7h11---||
|------------------------------------------------:||
|-------------------------------------------------||
|-------------------------------------------------||
|------------------------------------------------:||
|-------------------------------------------------||
|
|Gtr 2
|-------------------------------------------------||
|------------------------------------------------:||
|-------------------------------------------------||
|---4---------------------------------------------||
|---4--------------------------------------------:||
|---2---------------------------------------------||

Repeat Main Riff (01:20)

Breakdown (01:36)
 Gtr 1 & 2               2/4    4/4
|-----------------------|-----|-----------------------|
|-----------------------|-----|-----------------------|
|-----------------------|-----|-----------------------|
|-----------------------|-----|-----------------------|
|---2-2---2-2-2-2--2-2--|-----|--2-2---2-2-2-2--2-2---|
|---0-0---0-0-0-0--0-0--|-----|--0-0---0-0-0-0--0-0---|
|   - -   - - - -  - -           - -   - - - -  - -
|                                               2/4
|-----------------------|----------------------|------|
|-----------------------|----------------------|------|
|-----------------------|----------------------|------|
|-----------------------|----------------------|------|
|-----2-2-2-2-2-2-2--2--|--2-2---2-2-2-2--2-2--|------|
|-----0-0-0-0-0-0-0--0--|--0-0---0-0-0-0--0-0--|------|
|     - - - - - - -  -     - -   - - - -  - -
|4/4                     2/4   4/4
|-----------------------|-----|------------------------|
|-----------------------|-----|------------------------|
|-----------------------|-----|------------------------|
|-----------------------|-----|------------------------|
|---2-2---2-2-2-2--2-2--|-----|-----2-2-2-2-2-2-2--2---|
|---0-0---0-0-0-0--0-0--|-----|-----0-0-0-0-0-0-0--0---|
|   - -   - - - -  - -              - - - - - - -  -
|
|-----------------------|
|-----------------------|
|-----------------------|
|-----------------------|
|---2-2-----------------|
|---0-0-----------------|
    - -
                         2/4    4/4
|-----------------------|-----|-----------------------|  |
|-----------------------|-----|-----------------------|  |
|-----------------------|-----|-----------------------|  |
|-----------------------|-----|-----------------------|  |
|---2-2---2-2-2-2--2-2--|-----|--2-2---2-2-2-2--2-2---|  |
|---0-3---0-0-0-0--0-3--|-----|--0-3---0-0-0-0--0-3---|  |
|   - -   - - - -  - -           - -   - - - -  - -      |
|                                               2/4      |
|-----------------------|----------------------|------|  |
|-----------------------|----------------------|------|  |
|-----------------------|----------------------|------|  2X
|-----------------------|----------------------|------|  |
|-----2-2-2-2-2-2-2--2--|--2-2---2-2-2-2--2-2--|------|  |
|-----0-0-0-0-0-0-0--0--|--0-3---0-0-0-0--0-3--|------|  |
|     - - - - - - -  -     - -   - - - -  - -            |
|4/4                     2/4   4/4                       |
|-----------------------|-----|------------------------| |
|-----------------------|-----|------------------------| |
|-----------------------|-----|------------------------| |
|-----------------------|-----|------------------------| |
|---2-2---2-2-2-2--2-2--|-----|-----2-2-2-2-2-2-2--2---| |
|---0-3---0-0-0-0--0-3--|-----|-----0-0-0-0-0-0-0--0---| |
    - -   - - - -  - -              - - - - - - -  -

Repeat Riff 1 (02:14) (4X)
Repeat Intro (02:35)
Repeat Chorus (02:40) (2X)
Repeat Main Riff (02:49) (2X)


h  hammer-on
p  pull-off
~  vibrato
-  palm mute
/  slide up
\  slide down
comments
We did not receive enough feedback on this tab! Please rate:
print report bad tab
1 2 3 4 5
I want to post or [tab]
guest
You may want to rate the tab now too:
select rating
Please do not post tabs as comments. Select "correction" instead!