Oops, an error
Loading. Please wait.

Ac Tab

ver1
ver1

Whole song

More versions @911Tabs.com
694 views 3 this week
no commentswrite comment
1 2 3 4 5
please rate
add to favorites launch autoscroll
font size
0
reset
Autoscroll
+/-
esc
set tempo
stop
Contributor
WARNING: You are trying to view
                                    content from Ultimate-Guitar.com
                                    in an unauthorized application,
                                    which is prohibited.

                                    Please use an official Ultimate
                                    Guitar Tabs application for iPhone,
                                    iPad or Android to access legitimate
                                    chords, guitar, bass, and drum tabs
                                    from Ultimate-Guitar.com database.

                                    Type "ultimate guitar tabs" in Apple
                                    App Store's or Android Market's
                                    search to find the application.
                              DLD - AC

-|-------------------------------------------------------------|
-|-------------------------------------------------------------|
-|---8--10----4---3-----3--4---6----9--11----------------------|
-|---x--x-----x---x-----x--x---x----x--x----6------------------|
-|---5--8-----2---1-----1--2---4----7--9----x------------------|
-|------------------------------------------4------------------|

-|-------------------------------------------------------------|
-|-------------------------------------------------------------|
-|---8---10----4---3-----3---4---6-----------4---6---7---9-----|
-|---x---x-----x---x-----x---x---x---6---8---x---x---x---x-----|
-|---5---8-----2---1-----1---2---4---x---x---2---4---5---7-----|
-|-----------------------------------4---6---------------------|


-|-------------------------------------------------------------------------------------|
-|-------------------------------------------------------------------------------------|
-|-------------------------------------------------------------------------------------|
-|---2222222222222222-4444444444444444-9999999999999999-2-4-6666666666666666-----------|
-|---2222222222222222-4444444444444444-9999999999999999-2-4-6666666666666666-----------|
-|---0000000000000000-2222222222222222-7777777777777777-0-2-4444444444444444-----------|


-|-------------------------------------------------------------------------------------|
-|-------------------------------------------------------------------------------------|
-|-------------------------------------------------------------------------------------|
-|---2222222222222222-4444444444444444-66666-------------------66666-------------------|
-|---2222222222222222-4444444444444444-66666---------2---------66666---------2---------|
-|---0000000000000000-2222222222222222-44444--4-2-4-----4-2-4--44444--0-2-4-----4-2-4--|

-|--------------------------------------------------------------------------------------|
-|--------------------------------------------------------------------------------------|
-|--------------------------------------------------------------------------------------|
-|---2222222222222222-4444444444444444-9999999999999999-2-4-6666666666666666------------|
-|---2222222222222222-4444444444444444-9999999999999999-2-4-6666666666666666------------|
-|---0000000000000000-2222222222222222-7777777777777777-0-2-4666666666666666------------|


-|--------------------------------------------------------------------------------------|
-|--------------------------------------------------------------------------------------|
-|------------------------------------------------4--6---7---9--------------------------|
-|---2222222222222222-44444444444444444----6--8---x--x---x---x--------------------------|
-|---2222222222222222-44444444444444444----x--x---2--4---5---7--------------------------|
-|---0000000000000000-22222222222222222----4--6-----------------------------------------|


-|----------------------------------------------------------------------------------------|
-|----------------------------------------------------------------------------------------|
-|---------6-------------6--------------9-------------9------------------6----------------|
-|------7-----7-------7-----7--------7----7--------7-----7------------7------7------------|
-|---7-------------7--------------7----------7---7----------7------7------------7---------|
-|----------------------------------------------------------------------------------------|


-|----------------------------------------------------------------------------------------|
-|----------------------------------------------------------------------------------------|
-|---------6-------------9---------------9------------------------------------------6-----|
-|------7-----7-------7-----7----------7-----7----------4---7-----4---7----------7------7-|
-|---7-----------7--7----------7-----7---------7------5---------5-------------7-----------|
-|----------------------------------------------------------------------------------------|


-|-------------------------------------------------------------|
-|-------------------------------------------------------------|
-|---------6---------------------------------------------------|
-|------7-----------2--2--4------------------------------------|
-|---7--------------2--2--4------------------------------------|
-|------------------0--0--2------------------------------------|


-|-------------------------------------------------------------|
-|-------------------------------------------------------------|
-|---8--10----4---3-----3--4---6----9--11----------------------|
-|---x--x-----x---x-----x--x---x----x--x----6------------------|
-|---5--8-----2---1-----1--2---4----7--9----x------------------|
-|------------------------------------------4------------------|


-|-------------------------------------------------------------|
-|-------------------------------------------------------------|
-|---8---10----4---3-----3---4---6-----------4---6---7---9-----|
-|---x---x-----x---x-----x---x---x---6---8---x---x---x---x-----|
-|---5---8-----2---1-----1---2---4---x---x---2---4---5---7-----|
-|-----------------------------------4---6---------------------|


-|-------------------------------------------------------------------------------------|
-|-------------------------------------------------------------------------------------|
-|-------------------------------------------------------------------------------------|
-|---2222222222222222-4444444444444444-9999999999999999-2-4-6666666666666666-----------|
-|---2222222222222222-4444444444444444-9999999999999999-2-4-6666666666666666-----------|
-|---0000000000000000-2222222222222222-7777777777777777-0-2-4444444444444444-----------|


-|-------------------------------------------------------------------------------------|
-|-------------------------------------------------------------------------------------|
-|-------------------------------------------------------------------------------------|
-|---2222222222222222-4444444444444444-66666-------------------66666-------------------|
-|---2222222222222222-4444444444444444-66666---------2---------66666---------2---------|
-|---0000000000000000-2222222222222222-44444--4-2-4-----4-2-4--44444--0-2-4-----4-2-4--|


-|-------------------------------------------------------------------------------------|
-|-------------------------------------------------------------------------------------|
-|-------------------------------------------------------------------------------------|
-|---2222222222222222-4444444444444444-9999999999999999-2-4-6666666666666666-----------|
-|---2222222222222222-4444444444444444-9999999999999999-2-4-6666666666666666-----------|
-|---0000000000000000-2222222222222222-7777777777777777-0-2-4444444444444444-----------|


-|--------------------------------------------------------------------------------------|
-|--------------------------------------------------------------------------------------|
-|------------------------------------------------4--6---7---9--------------------------|
-|---2222222222222222-44444444444444444----6--8---x--x---x---x--------------------------|
-|---2222222222222222-44444444444444444----x--x---2--4---5---7--------------------------|
-|---0000000000000000-22222222222222222----4--6-----------------------------------------|


-|----------------------------------------------------------------------------------------|
-|----------------------------------------------------------------------------------------|
-|---------6-------------6--------------9-------------9------------------6----------------|
-|------7-----7-------7-----7--------7----7--------7-----7------------7------7------------|
-|---7-------------7--------------7----------7---7----------7------7------------7---------|
-|----------------------------------------------------------------------------------------|


-|----------------------------------------------------------------------------------------|
-|----------------------------------------------------------------------------------------|
-|---------6-------------9---------------9------------------------------------------6-----|
-|------7-----7-------7-----7----------7-----7----------4---7-----4---7----------7------7-|
-|---7-----------7--7----------7-----7---------7------5---------5-------------7-----------|
-|----------------------------------------------------------------------------------------|


-|---------------0---------------------------------------------|
-|------------0------------------------------------------------|
-|---------6---------------------------------------------------|
-|------7-----------2--2--4------------------------------------|
-|---7--------------2--2--4------------------------------------|
-|------------------0--0--2------------------------------------|


-|-------------------------------------------------------------------------------------|
-|-------------------------------------------------------------------------------------|
-|-------------------------------------------------------------------------------------|
-|-------------------------------------------------------------------------------------|

-|-------------------------------------------------------------------------------------|
-|-------------------------------------------------------------------------------------|
-|--------------4--6---7---9-----------------------------------------------------------|
-|-------6--8---x--x---x---x-------2---2---44444--4--99999--9--66666--6----------------|
-|-------x--x---2--4---5---7-------2---2---44444--4--99999--9--66666--6----------------|
-|-------4--6----------------------0---0---22222--2--77777--7--44444--4----------------|

-|-------------------------------------------------------------------------------------|
-|-------------------------------------------------------------------------------------|
-|------------------------------------3--5--7--9-------------3--5--7--9----------------|
-|----------2---2---4---4-------6--8--x--x--x--x-------6--8--x--x--x--x----------------|
-|----------2---2---4---4-------x--x--1--3--5--7-------x--x--1--3--5--7----------------|
-|----------0---0---2---2-------4--6-------------------4--6----------------------------|


-|-------------------------------------------------------------|
-|-------------------------------------------------------------|
-|---8--10----4---3-----3--4---6----9--11----------------------|
-|---x--x-----x---x-----x--x---x----x--x----6------------------|
-|---5--8-----2---1-----1--2---4----7--9----x------------------|
-|------------------------------------------4------------------|

-|-------------------------------------------------------------|
-|-------------------------------------------------------------|
-|---8--10----4---3-----3--4---6-------------------------------|
-|---x--x-----x---x-----x--x---x---6---------------------------|
-|---5--8-----2---1-----1--2---4---x---------------------------|
-|---------------------------------4---------------------------|


Se aceptan Correcciones y comentarios.
                                                                                        
darkigniz
darkigniz1@hotmail.com
comments
We did not receive enough feedback on this tab! Please rate:
print report bad tab
1 2 3 4 5
I want to post or [tab]
guest
You may want to rate the tab now too:
select rating
Please do not post tabs as comments. Select "correction" instead!