Oops, an error
Loading. Please wait.

Ac Tab

ver2
ver2

Whole song

More versions @911Tabs.com
451 views 1 this week
no commentswrite comment
1 2 3 4 5
please rate
Autoscroll
+/-
esc
set tempo
stop
Contributor
Difficulty
novice
Hey! There's an official Ultimate Guitar app which is ideal
for learning songs when you're away from computer. Get the app
WARNING: You are trying to view
                                    content from Ultimate-Guitar.com
                                    in an unauthorized application,
                                    which is prohibited.

                                    Please use an official Ultimate
                                    Guitar Tabs application for iPhone,
                                    iPad or Android to access legitimate
                                    chords, guitar, bass, and drum tabs
                                    from Ultimate-Guitar.com database.

                                    Type "ultimate guitar tabs" in Apple
                                    App Store's or Android Market's
                                    search to find the application.
   DLD - AC




 
 
P.M.= Palm Muted
x - dead mute
/ - slide up
\\ - slide down
~ vibrato 


-|----------------------------------------------------------------------|
-|----------------------------------------------------------------------|
-|---8-\\-10~----4---3-----3--4---6----9-\\-11~-------------------------|
-|---x-\\-x~-----x---x-----x--x---x----x-\\-x~-----6~~~-----------------|
-|---5-\\-8~-----2---1-----1--2---4----7-\\-9~-----x~~~-----------------|
-|-------------------------------------------------4~~~-----------------|

                                                           P.M.
-|----------------------------------------------------------------------|
-|----------------------------------------------------------------------|
-|---8-\\-10~----4---3-----3---4---6----------4---6---8-\\-9-99---------|
-|---x-\\-x~-----x---x-----x---x---x---6---9--x---x---x-\\-x-xx---------|
-|---5-\\-8~-----2---1-----1---2---4---x---x--2---4---6-\\-7-77---------|
-|-------------------------------------4---6----------------------------|

P.M.
-|-------------------------------------------------------------------------------------|
-|-------------------------------------------------------------------------------------|
-|-------------------------------------------------------------------------------------|
-|---2222222222222222-4444444444444444-9999999999999999-2-4-6666666666666666-----------|
-|---2222222222222222-4444444444444444-9999999999999999-2-4-6666666666666666-----------|
-|---0000000000000000-2222222222222222-7777777777777777-0-2-4444444444444444-----------|

P.M.
-|-------------------------------------------------------------------------------------|
-|-------------------------------------------------------------------------------------|
-|-------------------------------------------------------------------------------------|
-|---2222222222222222-4444444444444444-66666-------------------66666-------------------|
-|---2222222222222222-4444444444444444-66666---------2---------66666---------2---------|
-|---0000000000000000-2222222222222222-44444--4-2-4-----4-2-4--44444--4-2-4-----4-2-4--|

P.M.
-|--------------------------------------------------------------------------------------|
-|--------------------------------------------------------------------------------------|
-|--------------------------------------------------------------------------------------|
-|---2222222222222222-4444444444444444-9999999999999999-2-4-6666666666666666------------|
-|---2222222222222222-4444444444444444-9999999999999999-2-4-6666666666666666------------|
-|---0000000000000000-2222222222222222-7777777777777777-0-2-4444444444444444------------|

P.M.                                                             P.M.  
-|---------------------------------------------------------------------------------------|
-|---------------------------------------------------------------------------------------|
-|------------------------------------------------4--6---8-\\-9--99----------------------|
-|---2222222222222222-44444444444444444----6--8---x--x---x-\\-x--xx----------------------|
-|---2222222222222222-44444444444444444----x--x---2--4---6-\\-7--77----------------------|
-|---0000000000000000-22222222222222222----4--6------------------------------------------|


-|----------------------------------------------------------------------------------------|
-|----------------------------------------------------------------------------------------|
-|---------6-------------6--------------9-------------9------------------6----------------|
-|------7-----7-------7-----7--------7----7--------7-----7------------7------7------------|
-|---7-------------7--------------7----------7---7----------7------7------------7---------|
-|----------------------------------------------------------------------------------------|


-|----------------------------------------------------------------------------------------|
-|----------------------------------------------------------------------------------------|
-|---------6-------------9---------------9------------------------------------------6-----|
-|------7-----7-------7-----7----------7-----7----------4---7-----4---7----------7------7-|
-|---7-----------7--7----------7-----7---------7------5---------5-------------7-----------|
-|----------------------------------------------------------------------------------------|


-|--------------------------------------------------------------|
-|--------------------------------------------------------------|
-|--------------------------------------------------------------|
-|---8-8-8--8--8---------3--3--5---5----------------------------|
-|---8-8-8--8--8---------3--3--5---5----------------------------|
-|---5-5-5--5--5---------1--1--3---3----------------------------|


-|--------------------------------------------------------------|
-|--------------------------------------------------------------|
-|---8-\\-10~----4---3-----3--4---6----9-\\-11~-----------------|
-|---x-\\-x~-----x---x-----x--x---x----x-\\-x~-----6~~~---------|
-|---5-\\-8~-----2---1-----1--2---4----7-\\-9~-----x~~~---------|
-|-------------------------------------------------4~~~---------|



                                                           P.M.
-|---------------------------------------------------------------|
-|---------------------------------------------------------------|
-|---8-\\-10~----4---3-----3---4---6-----------4---6---8-\-9-99--|
-|---x-\\-x~-----x---x-----x---x---x---6---8---x---x---x-\-x-xx--|
-|---5-\\-8~-----2---1-----1---2---4---x---x---2---4---6-\-7-77--|
-|-------------------------------------4---6---------------------|

P.M.
-|-------------------------------------------------------------------------------------|
-|-------------------------------------------------------------------------------------|
-|-------------------------------------------------------------------------------------|
-|---2222222222222222-4444444444444444-9999999999999999-2-4-6666666666666666-----------|
-|---2222222222222222-4444444444444444-9999999999999999-2-4-6666666666666666-----------|
-|---0000000000000000-2222222222222222-7777777777777777-0-2-4444444444444444-----------|

P.M.
-|-------------------------------------------------------------------------------------|
-|-------------------------------------------------------------------------------------|
-|-------------------------------------------------------------------------------------|
-|---2222222222222222-4444444444444444-66666-------------------66666-------------------|
-|---2222222222222222-4444444444444444-66666---------2---------66666---------2---------|
-|---0000000000000000-2222222222222222-44444--4-2-4-----4-2-4--44444--4-2-4-----4-2-4--|

P.M.
-|-------------------------------------------------------------------------------------|
-|-------------------------------------------------------------------------------------|
-|-------------------------------------------------------------------------------------|
-|---2222222222222222-4444444444444444-9999999999999999-2-4-6666666666666666-----------|
-|---2222222222222222-4444444444444444-9999999999999999-2-4-6666666666666666-----------|
-|---0000000000000000-2222222222222222-7777777777777777-0-2-4444444444444444-----------|

P.M.                                                            P.M.  
-|----------------------------------------------------------------------------------------|
-|----------------------------------------------------------------------------------------|
-|--------------------------------------------3--4--6---8-\\-9-99-------------------------|
-|---2222222222222222-44444444444444444----6--x--x--x---x-\\-x-xx-------------------------|
-|---2222222222222222-44444444444444444----x--1--2--4---6-\\-7-77-------------------------|
-|---0000000000000000-22222222222222222----4----------------------------------------------|


-|----------------------------------------------------------------------------------------|
-|----------------------------------------------------------------------------------------|
-|---------6-------------6--------------9-------------9------------------6----------------|
-|------7-----7-------7-----7--------7----7--------7-----7------------7------7------------|
-|---7-------------7--------------7----------7---7----------7------7------------7---------|
-|----------------------------------------------------------------------------------------|


-|----------------------------------------------------------------------------------------|
-|----------------------------------------------------------------------------------------|
-|---------6-------------9---------------9------------------------------------------6-----|
-|------7-----7-------7-----7----------7-----7----------4---7-----4---7----------7------7-|
-|---7-----------7--7----------7-----7---------7------5---------5-------------7-----------|
-|----------------------------------------------------------------------------------------|


-|--------------------------------------------------------------|
-|--------------------------------------------------------------|
-|--------------------------------------------------------------|
-|---8-8-8--8--8---------3--3--5---5----------------------------|
-|---8-8-8--8--8---------3--3--5---5----------------------------|
-|---5-5-5--5--5---------1--1--3---3----------------------------|

bass

P.M.
-|--------------------------------------------------------------------------------------|
-|--------------------------------------------------------------------------------------|
-|--------------------------------------------------------------------------------------|
-|---2222222222222222-4444444444444444-9999999999999999-2-4-6666666666666666------------|
-|---2222222222222222-4444444444444444-9999999999999999-2-4-6666666666666666------------|
-|---0000000000000000-2222222222222222-7777777777777777-0-2-4666666666666666------------|


P.M.
-|--------------------------------------------------------------------------------------|
-|--------------------------------------------------------------------------------------|
-|--------------------------------------------------------------------------------------|
-|---2222222222222222-4444444444444444-9999999999999999-2-4-6666666666666666------------|
-|---2222222222222222-4444444444444444-9999999999999999-2-4-6666666666666666------------|
-|---0000000000000000-2222222222222222-7777777777777777-0-2-4666666666666666------------|

P.M.                                                             P.M.
-|---------------------------------------------------------------------------------------|
-|---------------------------------------------------------------------------------------|
-|------------------------------------------------4--6---8-\\-9--9-9---------------------|
-|---2222222222222222-44444444444444444----6--8---x--x---x-\\-x--x-x---------------------|
-|---2222222222222222-44444444444444444----x--x---2--4---6-\\-7--7-7---------------------|
-|---0000000000000000-22222222222222222----4--6------------------------------------------|


P.M.
-|--------------------------------------------------------------------------------------|
-|--------------------------------------------------------------------------------------|
-|--------------------------------------------------------------------------------------|
-|---2222222222222222-4444444444444444-9999999999999999-2-4-6666666666666666------------|
-|---2222222222222222-4444444444444444-9999999999999999-2-4-6666666666666666------------|
-|---0000000000000000-2222222222222222-7777777777777777-0-2-4666666666666666------------|

P.M.                                                             P.M.
-|--------------------------------------------------------------------------------------|
-|--------------------------------------------------------------------------------------|
-|--------------------------------------------3----4--6----8-\\-9-99--------------------|
-|---2222222222222222-44444444444444444----6--x----x--x----x-\\-x-xx--------------------|
-|---2222222222222222-44444444444444444----x--1----2--4----6-\\-7-77--------------------|
-|---0000000000000000-22222222222222222----4--------------------------------------------|


-|--------------------------------------------------------------------------------------|
-|--------------------------------------------------------------------------------------|
-|--------------------------------------------------------------------------------------|
-|---2--2--4-4--9-9--6-6--2-2--6--------------------------------------------------------|
-|---2--2--4-4--9-9--6-6--2-2--6--------------------------------------------------------|
-|---0--0--2-2--7-7--4-4--0-0--4--------------------------------------------------------|


                         P.M.  
-|--------------------------------------------------|
-|--------------------------------------------------|
-|------3--4--6---7-\\-9-99-------------------------|
-|---6--x--x--x---x-\\-x-xx-------------------------|X2
-|---x--1--2--4---5-\\-7-77-------------------------|
-|---4----------------------------------------------|

-|----------------------------------------------------------------------|
-|----------------------------------------------------------------------|
-|---8-\\-10~----4---3-----3--4---6----9-\\-11~-------------------------|
-|---x-\\-x~-----x---x-----x--x---x----x-\\-x~-----6~~~-----------------|
-|---5-\\-8~-----2---1-----1--2---4----7-\\-9~-----x~~~-----------------|
-|-------------------------------------------------4~~~-----------------|

-|----------------------------------------------------------------------|
-|----------------------------------------------------------------------|
-|---8-\\-10~----4---3-----3---4---6------------------------------------|
-|---x-\\-x~-----x---x-----x---x---x---6~-------------------------------|
-|---5-\\-8~-----2---1-----1---2---4---x~-------------------------------|
-|-------------------------------------4~-------------------------------|


Se aceptan Correcciones y comentarios.
                                                                                        
darkigniz
darkigniz1@hotmail.com
comments
We did not receive enough feedback on this tab! Please rate:
print report bad tab
1 2 3 4 5
I want to post or [tab]
guest
You may want to rate the tab now too:
select rating
Please do not post tabs as comments. Select "correction" instead!