Oops, an error
Loading. Please wait.

Se Ela Perguntar Tab

1,690 views 14 this week
1 commentread comment
1 2 3 4 5
excellent!
x 1
add to favorites launch autoscroll
font size
0
reset
Autoscroll
+/-
esc
set tempo
stop
Contributor
N-D
WARNING: You are trying to view
                                    content from Ultimate-Guitar.com
                                    in an unauthorized application,
                                    which is prohibited.

                                    Please use an official Ultimate
                                    Guitar Tabs application for iPhone,
                                    iPad or Android to access legitimate
                                    chords, guitar, bass, and drum tabs
                                    from Ultimate-Guitar.com database.

                                    Type "ultimate guitar tabs" in Apple
                                    App Store's or Android Market's
                                    search to find the application.
E|---12---11--|---14-----12s7-----|----------------------------|--------------|
B|------------|-------0--------8--|--7^8^7-------------7---8---|---7----------|
G|------------|-------0-----------|---------9---8---9----------|------5---5---|
D|------------|-------------------|----------------------------|------7---7---|
A|------------|-------------------|----------------------------|---0----------|
E|------------|----0--------------|--0-------------------------|--------------|

 
|----8-----5--------------|-------------------------|----------------0--------|
|-------------7--5--------|---4-------------7-------|---s1--------------------|
|-------5-----------------|-----------5-------------|---------2---------------|
|-------------------------|-----------7-------------|---------4---------------|
|----0--------------------|---6---------------------|----3--------------------|
|-------------------------|-------------------------|-------------------------|
 
 
|-------------------------|--------------12---11----|---14-----12s7-----------|
|----0--------------------|-------4-----------------|-------0---------8-------|
|-------0--------0--------|-------2-----------------|-------0-----------------|
|-------2-----2-----------|----4--------------------|-------------------------|
|----------2--------------|----3--------------------|-------------------------|
|----3--------------------|-------------------------|---0---------------------|
 
 
|-------------------------|----2---------2----------|------7---9--10--9--7----|
|--7^8^7-------------7--8-|--3-------3---3----------|----------7------7-------|
|---------9---8---9-------|----------4---4----------|----------7------7-------|
|-------------------------|----------4--------------|---9---------------------|
|-------------------------|----2--------------------|-------------------------|
|--0----------------------|-------------------------|---7---------------------|
 
 
|-----10------------------|------9--10--12--10--9---|-----12------------------|
|----------11-----11------|---------11------11------|-----------11-----11-----|
|----------9------9-------|---------9-------9-------|-----------12-----12-----|
|-------------------------|-------------------------|-----10------------------|
|-----10------------------|---9---------------------|-------------------------|
|-------------------------|-------------------------|-------------------------|
 
 
|----11---------12---11---|---14------12s7----------|-------------------------|
|---------10--------------|-------0----------8------|---7^8^7-------------7-8-|
|---------11--------------|-------0-----------------|----------9---8---9------|
|----9--------------------|-------------------------|-------------------------|
|-------------------------|-------------------------|-------------------------|
|-------------------------|---0---------------------|---0---------------------|
 
 
|-------------------------|--8------5---------------|-------------------------|
|---5s7-------------------|-------------7----5------|---4-------7-------------|
|----------5------5-------|------5------------------|-------5-----------------|
|----------7------7-------|-------------------------|-------7-----------------|
|-----0-------------------|--0----------------------|---6---------------------|
|-------------------------|-------------------------|-------------------------|
 
   
|-----------------0-------|-------------------------|-------0--1--0--5--4-----|
|-----1-------------------|------0------------------|----------3-----3--------|
|----------2--------------|-----------1-----1-------|----------4-----4--------|
|----------4--------------|-----------2-----2-------|-------------------------|
|-----3-------------------|-------------------------|-------------------------|
|-------------------------|------4------------------|----0--------------------|
 
 
|----7------5---8---7-----|----10-------8---12--11--|----14-----12s7----------|
|--------5------5---------|--------10-------10------|--------0---------8------|
|--------5------5---------|--------9--------9-------|--------0----------------|
|-------------------------|-------------------------|-------------------------|
|----0--------------------|----0--------------------|-------------------------|
|-------------------------|-------------------------|----0--------------------|
 
 
|-------------------------|-------------------------|-------------------------|
|---7^8^7----------7--8---|-----8-------------------|-----7---------------7---|
|---------9--8--9---------|----------9-----9--------|-------------9---8-------|
|-------------------------|----------8-----8--------|---------7---------------|
|-------------------------|-------------------------|-------------------------|
|---0---------------------|-----9-------------------|-----8-------------------|
 
 
|----0--------------------|-----0-------------------|------------------2---5--|
|----------------------0--|----------0-----0--------|---------------4---------|
|-------------------0-----|----------0-----0--------|----4---3---4------------|
|----------------2--------|-------------------------|-------------------------|
|-------------2-----------|-------------------------|----2--------------------|
|----0----3---------------|-----0-------------------|-------------------------|
 
 
|-----3-------------------|-----2-------------------|-----0-------------------|
|-----------------4-------|----------0-----0--------|------------0-----0------|
|-----------2-------------|----------0-----0--------|------------0-----0------|
|-------------------------|-------------------------|-------------------------|
|-----0-------------------|-------------------------|-------------------------|
|-------------------------|-----3-------------------|-----0-------------------|
 
 
|----------------4--7--10-|-----8-------------------|-------------------------|
|----5---4---5------------|----------------9--------|----s12------------------|
|----4-------4------------|----------7--------------|------------9-----9------|
|----6-------6------------|-------------------------|------------10----10-----|
|-------------------------|-----8-------------------|-----0-------------------|
|----4--------------------|-------------------------|-------------------------|
 
 
|-------------------------|---14---12-------------0-|---------------0--10--9--|
|-----10------------------|-------------13--10------|---1-------1-------------|
|------------9-----9------|--------------------11---|-------2-----------------|
|------------10----10-----|-------------------------|-------------------------|
|-----0-------------------|-------------------------|---3---------------------|
|-------------------------|---0---------------------|-------------------------|
 
 
|-----8-------------------|----7--------------------|---6---6---6---6---6---6-|
|------------8-----8------|-----------8-----8-------|-------------------7-----|
|------------9-----9------|-----------9-----9-------|-----------9-------------|
|-------------------------|-------------------------|---8---------------------|
|-----7-------------------|----10-------------------|-------------------------|
|-------------------------|-------------------------|-------------------------|
   
 
|--12--12--12--12--12--12-|--11--11--11--11--11--11-|---8---8---8---8---8---8-|
|------------------11-----|------------------10-----|-------------------7-----|
|----------9--------------|----------11-------------|-----------8-------------|
|-------------------------|--9----------------------|---7---------------------|
|--9----------------------|-------------------------|-------------------------|
|-------------------------|-------------------------|-------------------------|

  
|------------------2---5--|-----3-------------------|-----2-------------------|
|---------------4---------|-----------------4-------|----------0-----0--------|
|----4---3---4------------|-----------2-------------|----------0-----0--------|
|-------------------------|-------------------------|-------------------------|
|----2--------------------|-----0-------------------|-------------------------|
|-------------------------|-------------------------|-----3-------------------|
 
 
|-----0-------------------|----------------4--7--10-|-----8-------------------|
|------------0-----0------|----5---4---5------------|----------------9--------|
|------------0-----0------|----4-------4------------|----------7--------------|
|-------------------------|----6-------6------------|-------------------------|
|-------------------------|-------------------------|-----8-------------------|
|-----0-------------------|----4--------------------|-------------------------|
 
 
|-------------------------|-------------------------|---14---12-------------0-|
|----s12------------------|-----10------------------|-------------13--10------|
|------------9-----9------|------------9-----9------|--------------------11---|
|------------10----10-----|------------10----10-----|-------------------------|
|-----0-------------------|-----0-------------------|-------------------------|
|-------------------------|-------------------------|---0---------------------|
 
 
|---------------0--10--9--|-----8-------------------|----7--------------------|
|---1-------1-------------|------------8-----8------|-----------8-------------|
|-------2-----------------|------------9-----9------|-----------9-------------|
|-------------------------|-------------------------|---------------8---9-----|
|---3---------------------|-----7-------------------|----10-------------------|
|-------------------------|-------------------------|-------------------------|
 
  
|------------------------|-------------------------|--0-------------------12°||
|---8--------10----8-----|----7----------8----7----|-------------------0--12°||
|------------------------|-------------------------|----------------0-----12°||
|-------8----------------|---------7---------------|-------------2-----------||
|------------------------|-------------------------|----------2--------------||
|---9--------------------|----8--------------------|--0---3----------------0-||
comments
We did not receive enough feedback on this tab! Please rate:
1 2 3 4 5
1 comment total.
0 reply
manoelmarceli wrote on December 20 2013, 09:28 am

adoro musica clássica. tou tentando tocar se ela perguntar.do grande Dilermando reis

I want to post or [tab]
guest
You may want to rate the tab now too:
select rating
Please do not post tabs as comments. Select "correction" instead!