Oops, an error
Loading. Please wait.

Alt Lys Er Svunnet Hen Bass Tab

ver1
ver1

Whole song

Interactive

More versions @911Tabs.com
741 views 1 this week
no commentswrite comment
1 2 3 4 5
please rate
Autoscroll
+/-
esc
set tempo
stop
Contributor
Hey! There's an official Ultimate Guitar app which is ideal
for learning songs when you're away from computer. Get the app
WARNING: You are trying to view
                                    content from Ultimate-Guitar.com
                                    in an unauthorized application,
                                    which is prohibited.

                                    Please use an official Ultimate
                                    Guitar Tabs application for iPhone,
                                    iPad or Android to access legitimate
                                    chords, guitar, bass, and drum tabs
                                    from Ultimate-Guitar.com database.

                                    Type "ultimate guitar tabs" in Apple
                                    App Store's or Android Market's
                                    search to find the application.
                                                                        
-----------------------------------|-----------------------------------|
-----------------------------------|-----------------------------------|
-----------------------------------|-----------------------------------|
--5----5--5----5--5----5--5--5--5--|--1----1--1----1--1----1--1--1--1--|
-----------------------------------|-----------------------------------|


                                                                        
-----------------------------------|-----------------------------------|
-----------------------------------|-----------------------------------|
-----------------------------------|-----------------------------------|
--5----5--5----5--5----5--5--5--5--|--1----1--1----1--1----1--1--1--1--|
-----------------------------------|-----------------------------------|


                                                                        
-----------------------------------|-----------------------------------|
-----------------------------------|-----------------------------------|
-----------------------------------|-----------------------------------|
--5----5--5----5--5----5--5--5--5--|--1----1--1----1--1----1--1--1--1--|
-----------------------------------|-----------------------------------|


                                                                        
-----------------------------------|-----------------------------------|
-----------------------------------|-----------------------------------|
-----------------------------------|-----------------------------------|
--5----5--5----5--5----5--5--5--5--|--1----1--1----1--1----1--1--1--1--|
-----------------------------------|-----------------------------------|


                                                                        
-----------------------------------|-----------------------------------|
-----------------------------------|-----------------------------------|
-----------------------------------|-----------------------------------|
--5----5--5----5--5----5--5--5--5--|--1----1--1----1--1----1--1--1--1--|
-----------------------------------|-----------------------------------|


                                                                        
-----------------------------------|-----------------------------------|
-----------------------------------|-----------------------------------|
-----------------------------------|-----------------------------------|
--5----5--5----5--5----5--5--5--5--|--1----1--1----1--1----1--1--1--1--|
-----------------------------------|-----------------------------------|


                                                                        
-----------------------------------|-----------------------------------|
-----------------------------------|-----------------------------------|
-----------------------------------|-----------------------------------|
--5----5--5----5--5----5--5--5--5--|--1----1--1----1--1----1--1--1--1--|
-----------------------------------|-----------------------------------|


                                                                        
-----------------------------------|-----------------------------------|
-----------------------------------|-----------------------------------|
-----------------------------------|-----------------------------------|
--5----5--5----5--5----5--5--5--5--|--1----1--1----1--1----1--1--1--1--|
-----------------------------------|-----------------------------------|


                                                                          
------------------------------------|------------------------------------|
------------------------------------|------------------------------------|
------------------------------------|------------------------------------|
--5----5--5--5--5--5----5--5--5--5--|--3----3--3--3--3--3----3--3--3--3--|
------------------------------------|------------------------------------|


                                                                      
------------------------------------|--------------------------------|
------------------------------------|--------------------------------|
------------------------------------|--------------------------------|
------------------------------------|--5----5--5--5--5--5------------|
--5----5--5--5--5--5----5--5--5--5--|--------------------------------|


                                                                          
------------------------------------|------------------------------------|
------------------------------------|------------------------------------|
------------------------------------|------------------------------------|
--5----5--5--5--5--5----5--5--5--5--|--3----3--3--3--3--3----3--3--3--3--|
------------------------------------|------------------------------------|


                                                                      
------------------------------------|--------------------------------|
------------------------------------|--------------------------------|
------------------------------------|--------------------------------|
------------------------------------|--5----5--5--5--5--5------------|
--5----5--5--5--5--5----5--5--5--5--|--------------------------------|


                                                                          
------------------------------------|------------------------------------|
------------------------------------|------------------------------------|
------------------------------------|------------------------------------|
--5----5--5--5--5--5----5--5--5--5--|--3----3--3--3--3--3----3--3--3--3--|
------------------------------------|------------------------------------|


                                                                      
------------------------------------|--------------------------------|
------------------------------------|--------------------------------|
------------------------------------|--------------------------------|
------------------------------------|--5----5--5--5--5--5------------|
--5----5--5--5--5--5----5--5--5--5--|--------------------------------|


                                                                          
------------------------------------|------------------------------------|
------------------------------------|------------------------------------|
------------------------------------|------------------------------------|
--5----5--5--5--5--5----5--5--5--5--|--3----3--3--3--3--3----3--3--3--3--|
------------------------------------|------------------------------------|


                                                                      
------------------------------------|--------------------------------|
------------------------------------|--------------------------------|
------------------------------------|--------------------------------|
------------------------------------|--5----5--5--5--5--5------------|
--5----5--5--5--5--5----5--5--5--5--|--------------------------------|


                                                                    
----------------------|--5--5--5--4--4--4--|-----------------------|
----------------------|--------------------|-----------------------|
--------2--0--0-0-0-0-|--------------------|---------2--0--0-0-0-0-|
--0---3---------------|--------------------|--0--0-3---------------|
----------------------|--------------------|-----------------------|


                                                                 
--5--5--5--4--4--4--|----------------------|--5--5--5--4--4--4--|
--------------------|----------------------|--------------------|
--------------------|--------2--0--0-0-0-0-|--------------------|
--------------------|--0---3---------------|--------------------|
--------------------|----------------------|--------------------|


                                             
-----------------------|--5--5--5--4--4--4--|
-----------------------|--------------------|
---------2--0--0-0-0-0-|--------------------|
--0--0-3---------------|--------------------|
-----------------------|--------------------|


                                                                        
-----------------------------------|-----------------------------------|
-----------------------------------|-----------------------------------|
-----------------------------------|-----------------------------------|
--5----5--5----5--5----5--5--5--5--|--1----1--1----1--1----1--1--1--1--|
-----------------------------------|-----------------------------------|


                                                                        
-----------------------------------|-----------------------------------|
-----------------------------------|-----------------------------------|
-----------------------------------|-----------------------------------|
--5----5--5----5--5----5--5--5--5--|--1----1--1----1--1----1--1--1--1--|
-----------------------------------|-----------------------------------|


                                                                        
-----------------------------------|-----------------------------------|
-----------------------------------|-----------------------------------|
-----------------------------------|-----------------------------------|
--5----5--5----5--5----5--5--5--5--|--1----1--1----1--1----1--1--1--1--|
-----------------------------------|-----------------------------------|


                                                                        
-----------------------------------|-----------------------------------|
-----------------------------------|-----------------------------------|
-----------------------------------|-----------------------------------|
--5----5--5----5--5----5--5--5--5--|--1----1--1----1--1----1--1--1--1--|
-----------------------------------|-----------------------------------|


                                                                        
-----------------------------------|-----------------------------------|
-----------------------------------|-----------------------------------|
-----------------------------------|-----------------------------------|
--5----5--5----5--5----5--5--5--5--|--1----1--1----1--1----1--1--1--1--|
-----------------------------------|-----------------------------------|


                                                                        
-----------------------------------|-----------------------------------|
-----------------------------------|-----------------------------------|
-----------------------------------|-----------------------------------|
--5----5--5----5--5----5--5--5--5--|--1----1--1----1--1----1--1--1--1--|
-----------------------------------|-----------------------------------|


                                                                        
-----------------------------------|-----------------------------------|
-----------------------------------|-----------------------------------|
-----------------------------------|-----------------------------------|
--5----5--5----5--5----5--5--5--5--|--1----1--1----1--1----1--1--1--1--|
-----------------------------------|-----------------------------------|


                                                                        
-----------------------------------|-----------------------------------|
-----------------------------------|-----------------------------------|
-----------------------------------|-----------------------------------|
--5----5--5----5--5----5--5--5--5--|--1----1--1----1--1----1--1--1--1--|
-----------------------------------|-----------------------------------|


                                                                     
------------------|----------------------|--------------------------|
------------------|----------------------|--------------------------|
------------------|----------9---10---9--|--------------------------|
------------------|----------------------|--0--0--0--0--5--5--5--5--|
------------------|----------------------|--------------------------|


                                                                  
--------------------------|-----------|--------------------------|
--------------------------|-----------|--------------------------|
--------------5--5--5--5--|--5--------|--------------------------|
--3--3--3--3--------------|-----------|--0--0--0--0--5--5--5--5--|
--------------------------|-----------|--------------------------|


                                                      
--------------------------|--------------------------|
--------------------------|--------------------------|
--------------5--5--5--5--|--------------------------|
--3--3--3--3--------------|--0--0--0--0--5--5--5--5--|
--------------------------|--------------------------|


                                                                  
--------------------------|-----------|--------------------------|
--------------------------|-----------|--------------------------|
--------------5--5--5--5--|--5--------|--------------------------|
--3--3--3--3--------------|-----------|--0--0--0--0--5--5--5--5--|
--------------------------|-----------|--------------------------|


                                                      
--------------------------|--------------------------|
--------------------------|--------------------------|
--------------5--5--5--5--|--------------------------|
--3--3--3--3--------------|--0--0--0--0--5--5--5--5--|
--------------------------|--------------------------|


                                                                      
--------------------------|-----------|------------------------------|
--------------------------|-----------|------------------------------|
--------------5--5--5--5--|--5--------|-----------------5--5-5--5-5--|
--3--3--3--3--------------|-----------|--0--0-0-0-0-0-0--------------|
--------------------------|-----------|------------------------------|


                                                            
----------------------------|------------------------------|
----------------------------|------------------------------|
----------------------------|-----------------5--5-5--5-5--|
--3--3-3-3-3-3-5-7--7-7-----|--0--0-0-0-0-0-0--------------|
----------------------------|------------------------------|


                                                            
----------------------------|------------------------------|
----------------------------|------------------------------|
----------------------------|-----------------5--5-5--5-5--|
--3--3-3-3-3-3-5------------|--0--0-0-0-0-0-0--------------|
-----------------0--0-0-----|------------------------------|


                                                            
----------------------------|------------------------------|
----------------------------|------------------------------|
----------------------------|-----------------5--5-5--5-5--|
--3--3-3-3-3-3-5-7--7-7-----|--0--0-0-0-0-0-0--------------|
----------------------------|------------------------------|


                                                                       
----------------------------|------------------|----------------------|
----------------------------|------------------|----------------------|
----------------------------|------------------|----------9---10---9--|
--3--3-3-3-3-3-5------------|------------------|----------------------|
-----------------0--0-0-----|------------------|----------------------|


                                                                  
--------------------------|--------------------------|-----------|
--------------------------|--------------------------|-----------|
--------------------------|--------------5--5--5--5--|--5--------|
--0--0--0--0--5--5--5--5--|--3--3--3--3--------------|-----------|
--------------------------|--------------------------|-----------|


                                                      
--------------------------|--------------------------|
--------------------------|--------------------------|
--------------------------|--------------5--5--5--5--|
--0--0--0--0--5--5--5--5--|--3--3--3--3--------------|
--------------------------|--------------------------|


                                                                  
--------------------------|--------------------------|-----------|
--------------------------|--------------------------|-----------|
--------------------------|--------------5--5--5--5--|--5--------|
--0--0--0--0--5--5--5--5--|--3--3--3--3--------------|-----------|
--------------------------|--------------------------|-----------|


                                                      
--------------------------|--------------------------|
--------------------------|--------------------------|
--------------------------|--------------5--5--5--5--|
--0--0--0--0--5--5--5--5--|--3--3--3--3--------------|
--------------------------|--------------------------|


                                                                  
--------------------------|--------------------------|-----------|
--------------------------|--------------------------|-----------|
--------------------------|--------------5--5--5--5--|--5--------|
--0--0--0--0--5--5--5--5--|--3--3--3--3--------------|-----------|
--------------------------|--------------------------|-----------|


                                                            
------------------------------|----------------------------|
------------------------------|----------------------------|
-----------------5--5-5--5-5--|----------------------------|
--0--0-0-0-0-0-0--------------|--3--3-3-3-3-3-5-7--7-7-----|
------------------------------|----------------------------|


                                                            
------------------------------|----------------------------|
------------------------------|----------------------------|
-----------------5--5-5--5-5--|----------------------------|
--0--0-0-0-0-0-0--------------|--3--3-3-3-3-3-5------------|
------------------------------|-----------------0--0-0-----|


                                                            
------------------------------|----------------------------|
------------------------------|----------------------------|
-----------------5--5-5--5-5--|----------------------------|
--0--0-0-0-0-0-0--------------|--3--3-3-3-3-3-5-7--7-7-----|
------------------------------|----------------------------|


                                                            
------------------------------|----------------------------|
------------------------------|----------------------------|
-----------------5--5-5--5-5--|----------------------------|
--0--0-0-0-0-0-0--------------|--3--3-3-3-3-3-5------------|
------------------------------|-----------------0--0-0-----|


                                                                
--------------------|---------------------|--------------------|
--------------------|---------------------|--------------------|
--------------------|--2------------------|--------------------|
--3--------2--------|---------3------0----|--3--------2--------|
--------------------|---------------------|--------------------|


                                                                              
----------------------------------|--------------------|---------------------|
----------------------------------|--------------------|---------------------|
--2--2--2--4--5--4--2------2------|--------------------|--2------------------|
----------------------------------|--3--------2--------|---------3------0----|
----------------------------------|--------------------|---------------------|


                                                                             
--------------------|----------------------------------|--------------------|
--------------------|----------------------------------|--------------------|
--------------------|--2--2--2--4--5--4--2------2------|--------------------|
--3--------2--------|----------------------------------|--3--------2--------|
--------------------|----------------------------------|--------------------|


                                                                              
---------------------|--------------------|----------------------------------|
---------------------|--------------------|----------------------------------|
--2------------------|--------------------|--2--2--2--4--5--4--2------2------|
---------3------0----|--3--------2--------|----------------------------------|
---------------------|--------------------|----------------------------------|


                                                                
--------------------|---------------------|--------------------|
--------------------|---------------------|--------------------|
--------------------|--2------------------|--------------------|
--3--------2--------|---------3------0----|--3--------2--------|
--------------------|---------------------|--------------------|


                                                                              
----------------------------------|--------------------|---------------------|
----------------------------------|--------------------|---------------------|
--2--2--2--4--5--4--2------2------|--------------------|--2------------------|
----------------------------------|--3--------2--------|---------3------0----|
----------------------------------|--------------------|---------------------|


                                                                             
--------------------|----------------------------------|--------------------|
--------------------|----------------------------------|--------------------|
--------------------|--2--2--2--4--5--4--2------2------|--------------------|
--3--------2--------|----------------------------------|--3--------2--------|
--------------------|----------------------------------|--------------------|


                                                                              
---------------------|--------------------|----------------------------------|
---------------------|--------------------|----------------------------------|
--2------------------|--------------------|--2--2--2--4--5--4--2------2------|
---------3------0----|--3--------2--------|----------------------------------|
---------------------|--------------------|----------------------------------|


                                                                
--------------------|---------------------|--------------------|
--------------------|---------------------|--------------------|
--------------------|--2------------------|--------------------|
--3--------2--------|---------3------0----|--3--------2--------|
--------------------|---------------------|--------------------|


                                                                              
----------------------------------|--------------------|---------------------|
----------------------------------|--------------------|---------------------|
--2--2--2--4--5--4--2------2------|--------------------|--2------------------|
----------------------------------|--3--------2--------|---------3------0----|
----------------------------------|--------------------|---------------------|


                                                              
--------------------|----------------------------------|----||
--------------------|----------------------------------|----||
--------------------|--2--2--2--4--5--4--2------2------|----||
--3--------2--------|----------------------------------|----||
--------------------|----------------------------------|----||
comments
We did not receive enough feedback on this tab! Please rate:
print report bad tab
1 2 3 4 5
I want to post or [tab]
guest
You may want to rate the tab now too:
select rating
Please do not post tabs as comments. Select "correction" instead!