Oops, an error
Loading. Please wait.

Arcane Lifeforce Mysteria Bass Tab

179 views 1 this week
no commentswrite comment
1 2 3 4 5
please rate
add to favorites launch autoscroll
font size
0
reset
Autoscroll
+/-
esc
set tempo
stop
Contributor
WARNING: You are trying to view
                                    content from Ultimate-Guitar.com
                                    in an unauthorized application,
                                    which is prohibited.

                                    Please use an official Ultimate
                                    Guitar Tabs application for iPhone,
                                    iPad or Android to access legitimate
                                    chords, guitar, bass, and drum tabs
                                    from Ultimate-Guitar.com database.

                                    Type "ultimate guitar tabs" in Apple
                                    App Store's or Android Market's
                                    search to find the application.
G||------------------|------------------|------------------|------------------|
D||------------------|------------------|------------------|------------------|
A||------------------|------------------|------------------|------------------|
E||------------------|------------------|------------------|------------------|
B||------------------|------------------|------------------|------------------|

                                                                              
--------------------|------------------|------------------|------------------|
--------------------|------------------|------------------|------------------|
--------------------|------------------|------------------|------------------|
--0--0--------------|------------------|------------------|------------------|
--------------------|------------------|------------------|------------------|


                                                                              
--------------------|------------------|------------------|------------------|
--------------------|------------------|------------------|------------------|
--------------------|------------------|------------------|------------------|
--0--0--------------|------------------|------------------|------------------|
--------------------|------------------|------------------|------------------|


                                                                              
--------------------|------------------|------------------|------------------|
--------------------|------------------|------------------|------------------|
--------------------|------------------|------------------|------------------|
--0--0--------------|------------------|------------------|------------------|
--------------------|------------------|------------------|------------------|


                                                                              
--------------------|------------------|------------------|------------------|
--------------------|------------------|------------------|------------------|
--------------------|------------------|------------------|------------------|
--0--0--------------|------------------|------------------|------------------|
--------------------|------------------|------------------|------------------|


                                                          
----------------------------|----------------------------|
----------------------------|----------------------------|
----------------------------|----------------------------|
--0--0--0--0--0--0--0-0-0-0-|--0--0--0--0--0--0--0-0-0-0-|
----------------------------|----------------------------|


                                                                              
----------------------------|-------------------|----------------------------|
----------------------------|-------------------|----------------------------|
----------------------------|-------------------|----------------------------|
--0--0--0--0--0--0--0-0-0-0-|--0----------------|--0--0--0--0--0--0--0-0-0-0-|
----------------------------|-------------------|----------------------------|


                                                                              
----------------------------|----------------------------|-------------------|
----------------------------|----------------------------|-------------------|
----------------------------|----------------------------|-------------------|
--0--0--0--0--0--0--0-0-0-0-|--0--0--0--0--0--0--0-0-0-0-|--0----------------|
----------------------------|----------------------------|-------------------|


                                                          
----------------------------|----------------------------|
----------------------------|----------------------------|
----------------------------|----------------------------|
--0--0--0--0--0--0--0-0-0-0-|--0--0--0--0--0--0--0-0-0-0-|
----------------------------|----------------------------|


                                                                              
----------------------------|-------------------|----------------------------|
----------------------------|-------------------|----------------------------|
----------------------------|-------------------|----------------------------|
--0--0--0--0--0--0--0-0-0-0-|--0----------------|--0--0--0--0--0--0--0-0-0-0-|
----------------------------|-------------------|----------------------------|


                                                                              
----------------------------|----------------------------|-------------------|
----------------------------|----------------------------|-------------------|
----------------------------|----------------------------|-------------------|
--0--0--0--0--0--0--0-0-0-0-|--0--0--0--0--0--0--0-0-0-0-|--0----------------|
----------------------------|----------------------------|-------------------|


                                                          
----------------------------|----------------------------|
----------------------------|----------------------------|
----------------------------|----------------------------|
--0--0--0--0--0--0--0-0-0-0-|--0--0--0--0--0--0--0-0-0-0-|
----------------------------|----------------------------|


                                                                              
----------------------------|-------------------|----------------------------|
----------------------------|-------------------|----------------------------|
----------------------------|-------------------|----------------------------|
--0--0--0--0--0--0--0-0-0-0-|--0----------------|--0--0--0--0--0--0--0-0-0-0-|
----------------------------|-------------------|----------------------------|


                                                                              
----------------------------|----------------------------|-------------------|
----------------------------|----------------------------|-------------------|
----------------------------|----------------------------|-------------------|
--0--0--0--0--0--0--0-0-0-0-|--0--0--0--0--0--0--0-0-0-0-|--0----------------|
----------------------------|----------------------------|-------------------|


                                                          
----------------------------|----------------------------|
----------------------------|----------------------------|
----------------------------|----------------------------|
--0--0--0--0--0--0--0-0-0-0-|--0--0--0--0--0--0--0-0-0-0-|
----------------------------|----------------------------|


                                                                              
----------------------------|-------------------|----------------------------|
----------------------------|-------------------|----------------------------|
----------------------------|-------------------|----------------------------|
--0--0--0--0--0--0--0-0-0-0-|--0----------------|--0--0--0--0--0--0--0-0-0-0-|
----------------------------|-------------------|----------------------------|


                                                                              
----------------------------|----------------------------|-------------------|
----------------------------|----------------------------|-------------------|
----------------------------|----------------------------|-------------------|
--0--0--0--0--0--0--0-0-0-0-|--0--0--0--0--0--0--0-0-0-0-|--0----------------|
----------------------------|----------------------------|-------------------|


                                                                               
-----------------------|------------------------|-----------------------------|
-----------------------|------------------------|-----------------------------|
--0--------------------|------------------------|---------------3-------------|
-----------------------|----------4--------1----|--5---------------------1----|
-----------------------|------------------------|-----------------------------|


                                                                       
-------------------------------|--------------------------------------|
-------------------------------|--------------------------------------|
-------------------------------|--0--0--0--0--0--0--3--3--3--3--3--3--|
--5--------5----4----1----4----|--------------------------------------|
-------------------------------|--------------------------------------|


                                                                              
--------------------------------------|--------------------------------------|
--------------------------------------|--------------------------------------|
--0--0--0--0--0--0--------------------|--0--0--0--0--0--0--3--3--3--3--3--3--|
--------------------4--4--4--4--1--1--|--------------------------------------|
--------------------------------------|--------------------------------------|


                                                                              
--------------------------------------|--------------------------------------|
--------------------------------------|--------------------------------------|
--0--0--0--0--0--0--------------3--3--|--0--0--0--0--0--0--3--3--3--3--3--3--|
--------------------4--4--1--1--------|--------------------------------------|
--------------------------------------|--------------------------------------|


                                                                              
--------------------------------------|--------------------------------------|
--------------------------------------|--------------------------------------|
--0--0--0--0--0--0--------------------|--0--0--0--0--0--0--3--3--3--3--3--3--|
--------------------4--4--4--4--1--1--|--------------------------------------|
--------------------------------------|--------------------------------------|


                                                                              
--------------------------------------|--------------------------------------|
--------------------------------------|--------------------------------------|
--0--0--0--0--0--0--------------3--3--|--0--0--0--0--0--0--3--3--3--3--3--3--|
--------------------4--4--1--1--------|--------------------------------------|
--------------------------------------|--------------------------------------|


                                                                              
--------------------------------------|--------------------------------------|
--------------------------------------|--------------------------------------|
--0--0--0--0--0--0--------------------|--0--0--0--0--0--0--3--3--3--3--3--3--|
--------------------4--4--4--4--1--1--|--------------------------------------|
--------------------------------------|--------------------------------------|


                                                                              
--------------------------------------|--------------------------------------|
--------------------------------------|--------------------------------------|
--0--0--0--0--0--0--------------3--3--|--0--0--0--0--0--0--3--3--3--3--3--3--|
--------------------4--4--1--1--------|--------------------------------------|
--------------------------------------|--------------------------------------|


                                                                              
--------------------------------------|--------------------------------------|
--------------------------------------|--------------------------------------|
--0--0--0--0--0--0--------------------|--0--0--0--0--0--0--3--3--3--3--3--3--|
--------------------4--4--4--4--1--1--|--------------------------------------|
--------------------------------------|--------------------------------------|


                                                           
--------------------------------------|-------------------|
--------------------------------------|-------------------|
--0--0--0--0--0--0--------------3--3--|-------------------|
--------------------4--4--1--1--------|--0----------------|
--------------------------------------|-------------------|


                                                                             
-----------------------------|---------------|--------------|---------------|
-----------------------------|---------------|--------------|---------------|
-----------------------------|---------------|--------------|--7------------|
--8/-5--5--5/-4--4--4/-1--1--|--0------------|--------------|---------------|
-----------------------------|---------------|--------------|---------------|


                                                                           
------------------------|---------------------|---------------------------|
------------------------|---------------------|---------------------------|
------------------------|---------------------|---------------------------|
------8/-5--5--5/-4--4--|--0--------0--0-0-0--|--0--0-0-0--0----0--0-0-0--|
------------------------|---------------------|---------------------------|


                                                               
---------------|------------------------|---------------------|
---------------|------------------------|---------------------|
---------------|------------------------|---------------------|
--0------------|------8/-5--5--5/-4--4--|--0--------0--0-0-0--|
---------------|------------------------|---------------------|


                                                                     
---------------------------|---------------|------------------------|
---------------------------|---------------|------------------------|
---------------------------|---------------|------------------------|
--0--0-0-0--0----0--0-0-0--|--0------------|------8/-5--5--5/-4--4--|
---------------------------|---------------|------------------------|


                                                                    
|----------------------|---------------------------|---------------|
|*---------------------|---------------------------|---------------|
|----------------------|---------------------------|---------------|
|*--0--------0--0-0-0--|--0--0-0-0--0----0--0-0-0--|--0------------|
|----------------------|---------------------------|---------------|


                         2x                                                  
-------------------------||---------------------|---------------------------|
------------------------*||---------------------|---------------------------|
-------------------------||---------------------|---------------------------|
------8/-5--5--5/-4--4--*||--0--------0--0-0-0--|--0--0-0-0--0----0--0-0-0--|
-------------------------||---------------------|---------------------------|


                                                                  
--------------------------------|--------------------------------|
--------------------------------|--------------------------------|
--0------0--0----3------3--3----|--0------0--0-------------------|
--------------------------------|-----------------4------4--1----|
--------------------------------|--------------------------------|


                                                                  
--------------------------------|--------------------------------|
--------------------------------|--------------------------------|
--0------0--0----3------3--3----|--0------0--0--------------3----|
--------------------------------|-----------------4----1---------|
--------------------------------|--------------------------------|


                                                                  
--------------------------------|--------------------------------|
--------------------------------|--------------------------------|
--0------0--0----3------3--3----|--0------0--0-------------------|
--------------------------------|-----------------4------4--1----|
--------------------------------|--------------------------------|


                                                                  
--------------------------------|--------------------------------|
--------------------------------|--------------------------------|
--0------0--0----3------3--3----|--0------0--0--------------3----|
--------------------------------|-----------------4----1---------|
--------------------------------|--------------------------------|


                                                                              
--------------------------------------|--------------------------------------|
--------------------------------------|--------------------------------------|
--0--0--0--0--0--0--3--3--3--3--3--3--|--0--0--0--0--0--0--------------------|
--------------------------------------|--------------------4--4--4--4--1--1--|
--------------------------------------|--------------------------------------|


                                                                              
--------------------------------------|--------------------------------------|
--------------------------------------|--------------------------------------|
--0--0--0--0--0--0--3--3--3--3--3--3--|--0--0--0--0--0--0--------------3--3--|
--------------------------------------|--------------------4--4--1--1--------|
--------------------------------------|--------------------------------------|


                                                                              
--------------------------------------|--------------------------------------|
--------------------------------------|--------------------------------------|
--0--0--0--0--0--0--3--3--3--3--3--3--|--0--0--0--0--0--0--------------------|
--------------------------------------|--------------------4--4--4--4--1--1--|
--------------------------------------|--------------------------------------|


                                                                              
--------------------------------------|--------------------------------------|
--------------------------------------|--------------------------------------|
--0--0--0--0--0--0--3--3--3--3--3--3--|--0--0--0--0--0--0--------------3--3--|
--------------------------------------|--------------------4--4--1--1--------|
--------------------------------------|--------------------------------------|


                                                                  
--------------------------------|--------------------------------|
--------------------------------|--------------------------------|
--4------4--4----5------5--5----|--1------1--1----4------4--4----|
--------------------------------|--------------------------------|
--------------------------------|--------------------------------|


                                                   
--------------------------------|-----------------|
--------------------------------|-----------------|
--4------4--4----4------4--4----|--4------4--4----|
--------------------------------|-----------------|
--------------------------------|-----------------|


                                                                 
--------------------------------|-------------------------------|
--------------------------------|-------------------------------|
--4------4--4----5------5--5----|--1--------8----4------4--4----|
--------------------------------|-------------------------------|
--------------------------------|-------------------------------|


                                                                  
--------------------------------|--------------------------------|
--------------------------------|--------------------------------|
--8------8--8----8------8--8----|--8------8--8----8------8--8----|
--------------------------------|--------------------------------|
--------------------------------|--------------------------------|


                                                                  
--------------------------------|--------------------------------|
--------------------------------|--------------------------------|
--4------4--4----5------5--5----|--1------1--1----4------4--4----|
--------------------------------|--------------------------------|
--------------------------------|--------------------------------|


                                                   
--------------------------------|-----------------|
--------------------------------|-----------------|
--4------4--4----4------4--4----|--4------4--4----|
--------------------------------|-----------------|
--------------------------------|-----------------|


                                                                 
--------------------------------|-------------------------------|
--------------------------------|-------------------------------|
--4------4--4----5------5--5----|--1--------8----4------4--4----|
--------------------------------|-------------------------------|
--------------------------------|-------------------------------|


                                                                  
--------------------------------|--------------------------------|
--------------------------------|--------------------------------|
--8------8--8----8------8--8----|--8------8--8----8------8--8----|
--------------------------------|--------------------------------|
--------------------------------|--------------------------------|


                                                                  
--------------------------------|--------------------------------|
--------------------------------|--------------------------------|
--4------4--4----5------5--5----|--1------1--1----4------4--4----|
--------------------------------|--------------------------------|
--------------------------------|--------------------------------|


                                                   
--------------------------------|-----------------|
--------------------------------|-----------------|
--4------4--4----4------4--4----|--4----4----4----|
--------------------------------|-----------------|
--------------------------------|-----------------|


                                                                 
--------------------------------|-------------------------------|
--------------------------------|-------------------------------|
--4------4--4----5------5--5----|--1--------8----4------4--4----|
--------------------------------|-------------------------------|
--------------------------------|-------------------------------|


                                                                  
--------------------------------|--------------------------------|
--------------------------------|--------------------------------|
--8------8--8----8------8--8----|--8------8--8----8------8--8----|
--------------------------------|--------------------------------|
--------------------------------|--------------------------------|


                                                                  
--------------------------------|--------------------------------|
--------------------------------|--------------------------------|
--4------4--4----5------5--5----|--1------1--1----4------4--4----|
--------------------------------|--------------------------------|
--------------------------------|--------------------------------|


                                                   
--------------------------------|-----------------|
--------------------------------|-----------------|
--4------4--4----4------4--4----|--4----4----4----|
--------------------------------|-----------------|
--------------------------------|-----------------|


                                                                 
--------------------------------|-------------------------------|
--------------------------------|-------------------------------|
--4------4--4----5------5--5----|--1--------8----4------4--4----|
--------------------------------|-------------------------------|
--------------------------------|-------------------------------|


                                                                  
--------------------------------|--------------------------------|
--------------------------------|--------------------------------|
--8------8--8----8------8--8----|--8------8--8----8------8--8----|
--------------------------------|--------------------------------|
--------------------------------|--------------------------------|


                                                                    
|---------------------------------|--------------------------------|
|*--------------------------------|--------------------------------|
|---4------4--4----5------5--5----|--1------1--1----4------4--4----|
|*--------------------------------|--------------------------------|
|---------------------------------|--------------------------------|


                                                   
--------------------------------|-----------------|
--------------------------------|-----------------|
--4------4--4----4------4--4----|--4----4----4----|
--------------------------------|-----------------|
--------------------------------|-----------------|


                                                                 
--------------------------------|-------------------------------|
--------------------------------|-------------------------------|
--4------4--4----5------5--5----|--1--------8----4------4--4----|
--------------------------------|-------------------------------|
--------------------------------|-------------------------------|


                                                                    
--------------------------------|---------------------------------||
--------------------------------|--------------------------------*||
--8------8--8----8------8--8----|--8------8--8----8------8--8-----||
--------------------------------|--------------------------------*||
--------------------------------|---------------------------------||


                                                                 
--------------------------------|-------------------------------|
--------------------------------|-------------------------------|
--4------4--4----5------5--5----|--1--------8----4------4--4----|
--------------------------------|-------------------------------|
--------------------------------|-------------------------------|


                                                                  
--------------------------------|--------------------------------|
--------------------------------|--------------------------------|
--8------8--8----8------8--8----|--8------8--8----8------8--8----|
--------------------------------|--------------------------------|
--------------------------------|--------------------------------|


                                                          
----------------------------|----------------------------|
----------------------------|----------------------------|
----------------------------|----------------------------|
--0--0--0--0--0--0--0-0-0-0-|--0--0--0--0--0--0--0-0-0-0-|
----------------------------|----------------------------|


                                                                              
----------------------------|-------------------|----------------------------|
----------------------------|-------------------|----------------------------|
----------------------------|-------------------|----------------------------|
--0--0--0--0--0--0--0-0-0-0-|--0----------------|--0--0--0--0--0--0--0-0-0-0-|
----------------------------|-------------------|----------------------------|


                                                                              
----------------------------|----------------------------|-------------------|
----------------------------|----------------------------|-------------------|
----------------------------|----------------------------|-------------------|
--0--0--0--0--0--0--0-0-0-0-|--0--0--0--0--0--0--0-0-0-0-|--0----------------|
----------------------------|----------------------------|-------------------|


                                                          
----------------------------|----------------------------|
----------------------------|----------------------------|
----------------------------|----------------------------|
--0--0--0--0--0--0--0-0-0-0-|--0--0--0--0--0--0--0-0-0-0-|
----------------------------|----------------------------|


                                                                              
----------------------------|-------------------|----------------------------|
----------------------------|-------------------|----------------------------|
----------------------------|-------------------|----------------------------|
--0--0--0--0--0--0--0-0-0-0-|--0----------------|--0--0--0--0--0--0--0-0-0-0-|
----------------------------|-------------------|----------------------------|


                                                                              
----------------------------|----------------------------|-------------------|
----------------------------|----------------------------|-------------------|
----------------------------|----------------------------|-------------------|
--0--0--0--0--0--0--0-0-0-0-|--2--2--2--2--2--2--2-2-2-2-|--0----------------|
----------------------------|----------------------------|-------------------|


                                                                   
|---------------------|----------------------|--------------------|
|*--------------------|----------------------|--------------------|
|---------------------|----------------------|--------------------|
|*--7--------6--------|------0----2--3--2----|--8--------7--------|
|---------------------|----------------------|--------------------|


                                                                 
------------------||---------------------|----------------------|
-----------------*||*--------------------|----------------------|
------------------||---------------------|----------------------|
------0----2--3--*||*--7--------6--------|------0----2--3--2----|
------------------||---------------------|----------------------|


                                                                            
--------------------|------------------||----------------------------------|
--------------------|-----------------*||----------------------------------|
--------------------|------------------||--7-------------------------------|
--8--------7--------|------0----2--3--*||-------8/-7--7--7/-2--2--2/-3--3--|
--------------------|------------------||----------------------------------|


                                                                 
-----------------------------|----------------------------------|
-----------------------------|----------------------------------|
-----------------------------|--7-------------------------------|
--3/-0--0--7/-8--8--8/-7--7--|-------8/-7--7--7/-2--2--2/-3--3--|
-----------------------------|----------------------------------|


                                                                          
--------------------------------------|----------------------------------|
--------------------------------------|----------------------------------|
--------------------------------------|--7-------------------------------|
--3/-0--0--8/-7--7--7/-8--8--8--8--8--|-------8/-7--7--7/-2--2--2/-3--3--|
--------------------------------------|----------------------------------|


                                                                          
--------------------------------------|----------------------------------|
--------------------------------------|----------------------------------|
--------------------------------------|--7-------------------------------|
--3/-0--0--7/-8--8--8/-7--7--7--7--7--|-------8/-7--7--7/-2--2--2/-3--3--|
--------------------------------------|----------------------------------|


                                                                          
--------------------------------------|----------------------------------|
--------------------------------------|----------------------------------|
--------------------------------------|--7-------------------------------|
--3/-0--0--8/-7--7--7/-8--8--8--8--8--|-------8/-7--7--7/-2--2--2/-3--3--|
--------------------------------------|----------------------------------|


                                                                                
-------------------------------------------|-----------------------------------|
-------------------------------------------|-----------------------------------|
-------------------------------------------|-----------------------------------|
--3/-0--0--7/-8--8--8/-12--12--12--12--12--|--12----8/-7--7--7/-2--2--2/-3--3--|
-------------------------------------------|-----------------------------------|


                                                                          
--------------------------------------|----------------------------------|
--------------------------------------|----------------------------------|
--------------------------------------|--7-------------------------------|
--3/-0--0--8/-7--7--7/-8--8--8--8--8--|-------8/-7--7--7/-2--2--2/-3--3--|
comments
We did not receive enough feedback on this tab! Please rate:
1 2 3 4 5
I want to post or [tab]
guest
You may want to rate the tab now too:
select rating
Please do not post tabs as comments. Select "correction" instead!