Oops, an error
Loading. Please wait.

Avmaktslave Tab

346 views 1 this week
no commentswrite comment
1 2 3 4 5
please rate
Autoscroll
+/-
esc
set tempo
stop
Contributor
Difficulty
intermediate
WARNING: You are trying to view
                                    content from Ultimate-Guitar.com
                                    in an unauthorized application,
                                    which is prohibited.

                                    Please use an official Ultimate
                                    Guitar Tabs application for iPhone,
                                    iPad or Android to access legitimate
                                    chords, guitar, bass, and drum tabs
                                    from Ultimate-Guitar.com database.

                                    Type "ultimate guitar tabs" in Apple
                                    App Store's or Android Market's
                                    search to find the application.
Avmaktslave
Dimmu Borgir

Tuning: Drop D (DGCFAd)

12/8

Intro
Guitar I
|| Q. |EEEEEEEEEEEE|EEEEEEEEEEEE|EEEEEEEEEEEE|Q. E  E EQEE  E E|
||----|------------|------------|------------|-----------------|
||----|------------|------------|------------|-----------------|
||----|------------|------------|------------|-----------------|
||----|777777777777|333333333333|777777777777|9--9h10p9779h10p7|
||11/0|------------|------------|------------|-----------------|
||----|------------|------------|------------|-----------------|
||
||Guitar II
|| Q. |EEEEEEEEEEEE|EEEEEEEEEEEE|EEEEEEEEEEEE|EEEEEEEEEEEE|
||----|------------|------------|------------|------------|
||----|------------|------------|------------|------------|
||----|------------|------------|------------|------------|
||----|777777777777|333333333333|777777777777|333333333333|
||11/0|777777777777|333333333333|777777777777|333333333333|
||----|555555555555|111111111111|555555555555|111111111111|


|EEEEEEEEEEEE|EEEEEEEEEEEE|EEEEEEEEEEEE|Q. E  E EQEE  E E|
|------------|------------|------------|-----------------|
|------------|------------|------------|-----------------|
|------------|------------|------------|-----------------|
|777777777777|333333333333|777777777777|9--9h10p9779h10p7|
|------------|------------|------------|-----------------|
|------------|------------|------------|-----------------|
|
|
|EEEEEEEEEEEE|EEEEEEEEEEEE|EEEEEEEEEEEE|EEEEEEEEEEEE|
|------------|------------|------------|------------|
|------------|------------|------------|------------|
|------------|------------|------------|------------|
|777777777777|333333333333|777777777777|333333333333|
|777777777777|333333333333|777777777777|333333333333|
|555555555555|111111111111|555555555555|111111111111|


Verse
|Q. Q. S  Q..QE|Q. Q.Q. Q.|Q. Q. S  Q..QE|Q. Q.Q. Q.|
|--------------|----------|--------------|----------|
|--------------|----------|--------------|----------|
|--------------|----------|--------------|----------|
|7--9--9h10-109|---8----7-|---9--9h10-109|---8----7-|
|--------------|7----7----|7-------------|7----7----|
|--------------|----------|--------------|----------|
|
|
|EEEEEEEEEEEE|EEEEEEEEEEEE|EEEEEEEEEEEE|EEEEEEEEEEEE|
|------------|------------|------------|------------|
|------------|------------|------------|------------|
|------------|------------|------------|------------|
|777777777777|333333333333|777777777777|333333333333|
|777777777777|333333333333|777777777777|333333333333|
|555555555555|111111111111|555555555555|111111111111|


|Q. Q. S  Q..QE|Q. Q.Q. Q.|Q. Q. S  Q..QE|Q. Q.Q. Q.|
|--------------|----------|--------------|----------|
|--------------|----------|--------------|----------|
|--------------|----------|--------------|----------|
|7--9--9h10-109|---8----7-|---9--9h10-109|---8----7-|
|--------------|7----7----|7-------------|7----7----|
|--------------|----------|--------------|----------|
|
|
|EEEEEEEEEEEE|EEEEEEEEEEEE|EEEEEEEEEEEE|EEEEEEEEEEEE|
|------------|------------|------------|------------|
|------------|------------|------------|------------|
|------------|------------|------------|------------|
|777777777777|333333333333|777777777777|333333333333|
|777777777777|333333333333|777777777777|333333333333|
|555555555555|111111111111|555555555555|111111111111|


Bridge
|W.          |W.r         |EEEEEEEEEEEE|EEEEEEEEEEEE|
|------------|------------|------------|------------|
|<5>---------|------------|------------|------------|
|------------|------------|------------|------------|
|------------|------------|111111111111|444444333333|
|------------|------------|111111111111|444444333333|
|------------|------------|000000000000|222222111111|
|
|
|EEEEEEEEEEEE|EEEEEEEEEEEE|EEEEEEEEEEEE|EEEEEEEEEEEE|
|------------|------------|------------|------------|
|------------|------------|------------|------------|
|------------|------------|------------|------------|
|111111111111|444444333333|111111111111|444444333333|
|111111111111|444444333333|111111111111|444444333333|
|000000000000|222222111111|000000000000|222222111111|


|EEEEEEEEEEEE|EEEEEEEEEEEE|EEEEEEEEEEEE|EEEEEEEEEEEE|
|------------|------------|------------|------------|
|------------|------------|------------|------------|
|------------|------------|------------|------------|
|111111111111|444444333333|111111111111|444444333333|
|111111111111|444444333333|111111111111|444444333333|
|000000000000|222222111111|000000000000|222222111111|
|
|
|EEEEEEEEEEEE|EEEEEEEEEEEE|EEEEEEEEEEEE|EEEEEEEEEEEE|
|------------|------------|------------|------------|
|------------|------------|------------|------------|
|------------|------------|------------|------------|
|111111111111|444444333333|111111111111|444444333333|
|111111111111|444444333333|111111111111|444444333333|
|000000000000|222222111111|000000000000|222222111111|


|EEEEEEEEEEEE|EEEEEEEEEEEE|EEEEEEEEEEEE|EEEEEEEEEEEE|
|------------|------------|------------|------------|
|------------|------------|------------|------------|
|------------|------------|------------|------------|
|111111111111|444444333333|111111111111|444444333333|
|111111111111|444444333333|111111111111|444444333333|
|000000000000|222222111111|000000000000|222222111111|
|
|
|EEEEEEEEEEEE|EEEEEEEEEEEE|EEEEEEEEEEEE|EEEEEEEEEEEE|
|------------|------------|------------|------------|
|------------|------------|------------|------------|
|------------|------------|------------|------------|
|111111111111|444444333333|111111111111|444444333333|
|111111111111|444444333333|111111111111|444444333333|
|000000000000|222222111111|000000000000|222222111111|


|EEEEEEEEEEEE|EEEEEEEEEEEE|EEEEEEEEEEEE|EEEEEEEEEEEE|
|------------|------------|------------|------------|
|------------|------------|------------|------------|
|------------|------------|------------|------------|
|111111111111|444444333333|111111111111|444444333333|
|111111111111|444444333333|111111111111|444444333333|
|000000000000|222222111111|000000000000|222222111111|
|
|
|EEEEEEEEEEEE|EEEEEEEEEEEE|EEEEEEEEEEEE|EEEEEEEEEEEE|
|------------|------------|------------|------------|
|------------|------------|------------|------------|
|------------|------------|------------|------------|
|111111111111|444444333333|111111111111|444444333333|
|111111111111|444444333333|111111111111|444444333333|
|000000000000|222222111111|000000000000|222222111111|


Chorus
|EEEEEES SS SS SS SS SE|EEEEEEEEEEEE|EEEEEES SS SS SS SS SE|EEEEEEEEEEEE|
|----------------------|------------|----------------------|------------|
|----------------------|------------|----------------------|------------|
|---------------------6|------------|---------------------6|------------|
|---5--7h87h87h87h87h8-|---5--------|---5--7h87h87h87h87h8-|---5--------|
|000-00----------------|000-00555555|000-00----------------|000-00555555|
|----------------------|------------|----------------------|------------|
|
|
|EEEEEES SS SS SS SS SE|EEEEEEEEEEEE|EEEEEES SS SS SS SS SE|EEEEEEEEEEEE|
|----------------------|------------|----------------------|------------|
|----------------------|------------|----------------------|------------|
|---------------------6|------------|---------------------6|------------|
|---5--7h87h87h87h87h8-|---5--------|---5--7h87h87h87h87h8-|---5--------|
|000-00----------------|000-00555555|000-00----------------|000-00555555|
|----------------------|------------|----------------------|------------|


|EEEEEES SS SS SS SS SE|EEEEEEEEEEEE|EEEEEES SS SS SS SS SE|EEEEEEEEEEEE|
|----------------------|------------|----------------------|------------|
|----------------------|------------|----------------------|------------|
|---------------------6|------------|---------------------6|------------|
|---5--7h87h87h87h87h8-|---5--------|---5--7h87h87h87h87h8-|---5--555555|
|000-00----------------|000-00555555|000-00----------------|000-00555555|
|----------------------|------------|----------------------|------------|
|
|
|EEEEEES SS SS SS SS SE|EEEEEEEEEEEE|EEEEEES SS SS SS SS SE|EEEEEEEEEEEE|
|----------------------|------------|----------------------|------------|
|----------------------|------------|----------------------|------------|
|---------------------6|------------|---------------------6|------------|
|---5--7h87h87h87h87h8-|---5--------|---5--7h87h87h87h87h8-|---5--555555|
|000-00----------------|000-00555555|000-00----------------|000-00555555|
|----------------------|------------|----------------------|------------|


Pre-Verse
|EEEEEEEEEEEE|EEEEEEEEEEEE|EEEEEEEEEEEE|Q. E  E EQEE  E E|
|------------|------------|------------|-----------------|
|------------|------------|------------|-----------------|
|------------|------------|------------|-----------------|
|777777777777|333333333333|777777777777|9--9h10p9779h10p7|
|------------|------------|------------|-----------------|
|------------|------------|------------|-----------------|
|
|
|EEEEEEEEEEEE|EEEEEEEEEEEE|EEEEEEEEEEEE|EEEEEEEEEEEE|
|------------|------------|------------|------------|
|------------|------------|------------|------------|
|------------|------------|------------|------------|
|777777777777|333333333333|777777777777|333333333333|
|777777777777|333333333333|777777777777|333333333333|
|555555555555|111111111111|555555555555|111111111111|


|EEEEEEEEEEEE|EEEEEEEEEEEE|EEEEEEEEEEEE|Q. E  E EQEE  E E|
|------------|------------|------------|-----------------|
|------------|------------|------------|-----------------|
|------------|------------|------------|-----------------|
|777777777777|333333333333|777777777777|9--9h10p9779h10p7|
|------------|------------|------------|-----------------|
|------------|------------|------------|-----------------|
|
|
|EEEEEEEEEEEE|EEEEEEEEEEEE|EEEEEEEEEEEE|EEEEEEEEEEEE|
|------------|------------|------------|------------|
|------------|------------|------------|------------|
|------------|------------|------------|------------|
|777777777777|333333333333|777777777777|333333333333|
|777777777777|333333333333|777777777777|333333333333|
|555555555555|111111111111|555555555555|111111111111|


Verse
|EEEEEEEEEEEE|EEEEEEEEEEEE|EEEEEEEEEEEE|EEEEEEEEEEEE|
|------------|------------|------------|------------|
|------------|------------|------------|------------|
|------------|------------|------------|------------|
|111111111111|444444333333|111111111111|444444333333|
|111111111111|444444333333|111111111111|444444333333|
|000000000000|222222111111|000000000000|222222111111|
|
|
|EEEEEEEEEEEE|EEEEEEEEEEEE|EEEEEEEEEEEE|EEEEEEEEEEEE|
|------------|------------|------------|------------|
|------------|------------|------------|------------|
|------------|------------|------------|------------|
|111111111111|444444333333|111111111111|444444333333|
|111111111111|444444333333|111111111111|444444333333|
|000000000000|222222111111|000000000000|222222111111|


|EEEEEEEEEEEE|EEEEEEEEEEEE|EEEEEEEEEEEE|EEEEEEEEEEEE|
|------------|------------|------------|------------|
|------------|------------|------------|------------|
|------------|------------|------------|------------|
|111111111111|444444333333|111111111111|444444333333|
|111111111111|444444333333|111111111111|444444333333|
|000000000000|222222111111|000000000000|222222111111|
|
|
|EEEEEEEEEEEE|EEEEEEEEEEEE|EEEEEEEEEEEE|EEEEEEEEEEEE|
|------------|------------|------------|------------|
|------------|------------|------------|------------|
|------------|------------|------------|------------|
|111111111111|444444333333|111111111111|444444333333|
|111111111111|444444333333|111111111111|444444333333|
|000000000000|222222111111|000000000000|222222111111|


Bridge
| E E E E E E E E E E E E| E E E E E E E E E E E E| E E E E E E E E E E E E| E E E E E E E E E E E E|
|------------------------|------------------------|------------------------|------------------------|
|------------------------|------------------------|------------------------|------------------------|
|------------------------|------------------------|------------------------|------------------------|
|131313131313141414131313|131313131313141414161616|111111111111121212111111|111111111111121212131313|
|------------------------|------------------------|------------------------|------------------------|
|111111111111121212111111|111111111111121212141414|-9-9-9-9-9-9101010-9-9-9|-9-9-9-9-9-9101010111111|
|
|
| E E E E E E E E E E E E| E E E E E E E E E E E E| E E E E E E E E E E E E| E E E E E E E E E E E E|
|------------------------|------------------------|------------------------|------------------------|
|------------------------|------------------------|------------------------|------------------------|
|------------------------|------------------------|------------------------|------------------------|
|131313131313141414131313|131313131313141414161616|111111111111121212111111|111111111111121212131313|
|------------------------|------------------------|------------------------|------------------------|
|111111111111121212111111|111111111111121212141414|-9-9-9-9-9-9101010-9-9-9|-9-9-9-9-9-9101010111111|


| E E E E E E E E E E E E| E E E E E E E E E E E E| E E E E E E E E E E E E| E E E E E E E E E E E E|
|------------------------|------------------------|------------------------|------------------------|
|------------------------|------------------------|------------------------|------------------------|
|------------------------|------------------------|------------------------|------------------------|
|131313131313141414131313|131313131313141414161616|111111111111121212111111|111111111111121212131313|
|------------------------|------------------------|------------------------|------------------------|
|111111111111121212111111|111111111111121212141414|-9-9-9-9-9-9101010-9-9-9|-9-9-9-9-9-9101010111111|
|
|
| E E E E E E E E E E E E| E E E E E E E E E E E E| E E E E E E E E E E E E| E E E E E E E E E E E E|
|------------------------|------------------------|------------------------|------------------------|
|------------------------|------------------------|------------------------|------------------------|
|------------------------|------------------------|------------------------|------------------------|
|131313131313141414131313|131313131313141414161616|111111111111121212111111|111111111111121212131313|
|------------------------|------------------------|------------------------|------------------------|
|111111111111121212111111|111111111111121212141414|-9-9-9-9-9-9101010-9-9-9|-9-9-9-9-9-9101010111111|


|------------------------|------------------------|------------------------|------------------------|
|------------------------|------------------------|------------------------|------------------------|
|------------------------|------------------------|------------------------|------------------------|
|------------------------|------------------------|------------------------|------------------------|
|151515151515161616151515|151515151515161616181818|131313131313141414131313|131313131313141414151515|
|------------------------|------------------------|------------------------|------------------------|
|131313131313141414131313|131313131313141414161616|111111111111121212111111|111111111111121212131313|
|
|
|------------------------|------------------------|------------------------|------------------------|
|------------------------|------------------------|------------------------|------------------------|
|------------------------|------------------------|------------------------|------------------------|
|------------------------|------------------------|------------------------|------------------------|
|151515151515161616151515|151515151515161616181818|131313131313141414131313|131313131313141414151515|
|------------------------|------------------------|------------------------|------------------------|
|131313131313141414131313|131313131313141414161616|111111111111121212111111|111111111111121212131313|


|------------------------|------------------------|------------------------|------------------------|
|------------------------|------------------------|------------------------|------------------------|
|------------------------|------------------------|------------------------|------------------------|
|------------------------|------------------------|------------------------|------------------------|
|151515151515161616151515|151515151515161616181818|171717171717181818171717|171717171717181818202020|
|------------------------|------------------------|------------------------|------------------------|
|131313131313141414131313|131313131313141414161616|151515151515161616151515|151515151515161616181818|
|
|
|------------------------|------------------------|------------------------|------------------------|
|------------------------|------------------------|------------------------|------------------------|
|------------------------|------------------------|------------------------|------------------------|
|------------------------|------------------------|------------------------|------------------------|
|151515151515161616151515|151515151515161616181818|171717171717181818171717|171717171717181818202020|
|------------------------|------------------------|------------------------|------------------------|
|131313131313141414131313|131313131313141414161616|151515151515161616151515|151515151515161616181818|


Chorus
|EEEEEES SS SS SS SS SE|EEEEEEEEEEEE|EEEEEES SS SS SS SS SE|EEEEEEEEEEEE|
|----------------------|------------|----------------------|------------|
|----------------------|------------|----------------------|------------|
|---------------------6|------------|---------------------6|------------|
|---5--7h87h87h87h87h8-|---5--------|---5--7h87h87h87h87h8-|---5--------|
|000-00----------------|000-00555555|000-00----------------|000-00555555|
|----------------------|------------|----------------------|------------|
|
|
|EEEEEES SS SS SS SS SE|EEEEEEEEEEEE|EEEEEES SS SS SS SS SE|EEEEEEEEEEEE|
|----------------------|------------|----------------------|------------|
|----------------------|------------|----------------------|------------|
|---------------------6|------------|---------------------6|------------|
|---5--7h87h87h87h87h8-|---5--------|---5--7h87h87h87h87h8-|---5--------|
|000-00----------------|000-00555555|000-00----------------|000-00555555|
|----------------------|------------|----------------------|------------|


|EEEEEES SS SS SS SS SE|EEEEEEEEEEEE|EEEEEES SS SS SS SS SE|EEEEEEEEEEEE|
|----------------------|------------|----------------------|------------|
|----------------------|------------|----------------------|------------|
|---------------------6|------------|---------------------6|------------|
|---5--7h87h87h87h87h8-|---5--------|---5--7h87h87h87h87h8-|---5--555555|
|000-00----------------|000-00555555|000-00----------------|000-00555555|
|----------------------|------------|----------------------|------------|
|
|
|EEEEEES SS SS SS SS SE|EEEEEEEEEEEE|EEEEEES SS SS SS SS SE|EEEEEEEEEEEE|
|----------------------|------------|----------------------|------------|
|----------------------|------------|----------------------|------------|
|---------------------6|------------|---------------------6|------------|
|---5--7h87h87h87h87h8-|---5--------|---5--7h87h87h87h87h8-|---5--555555|
|000-00----------------|000-00555555|000-00----------------|000-00555555|
|----------------------|------------|----------------------|------------|


Interlude
|EEEEEE EEEEEE|EEEEEEEEEEEE|EEEEEE EEEEEE|EEEEEEEEEEEE|
|-------------|------------|-------------|------------|
|-------------|------------|-------------|------------|
|-------------|------------|-------------|------------|
|7--9--10--9--|7--9--5--7--|7--9--10--9--|7--9--5--7--|
|-00-00--00-00|-88-88-88-88|-00-00--00-00|-88-88-88-88|
|-------------|------------|-------------|------------|
|
|
|EEEEEE EEEEEE|EEEEEEEEEEEE|EEEEEE EEEEEE|EEEEEEEEEEEE|
|-------------|------------|-------------|------------|
|-------------|------------|-------------|------------|
|-------------|------------|-------------|------------|
|7--9--10--9--|7--9--5--7--|7--9--10--9--|7--9--5--7--|
|-00-00--00-00|-88-88-88-88|-00-00--00-00|-88-88-88-88|
|-------------|------------|-------------|------------|


| E E E E E E E E E E E E| E E E E E EE E E E E E| E E E E E E E E E E E E| E E E E E EE E E E E E|
|------------------------|-----------------------|------------------------|-----------------------|
|10----12----13----12----|10----12----8----10----|10----12----13----12----|10----12----8----10----|
|------------------------|--1010--1010-1010--1010|------------------------|--1010--1010-1010--1010|
|------------------------|-----------------------|------------------------|-----------------------|
|--1212--1212--1212--1212|-----------------------|--1212--1212--1212--1212|-----------------------|
|------------------------|-----------------------|------------------------|-----------------------|
|
|
|EEEEEE EEEEEE|EEEEEEEEEEEE|EEEEEE EEEEEE|EEEEEEEEEEEE|
|-------------|------------|-------------|------------|
|-------------|------------|-------------|------------|
|-------------|------------|-------------|------------|
|7--9--10--9--|7--9--5--7--|7--9--10--9--|7--9--5--7--|
|-00-00--00-00|-88-88-88-88|-00-00--00-00|-88-88-88-88|
|-------------|------------|-------------|------------|


Outro
|W.          |W.r         |EEEEEEEEEEEE|Q. E  E EQEE  E E|
|<7>---------|------------|------------|-----------------|
|------------|------------|------------|-----------------|
|------------|------------|------------|-----------------|
|------------|------------|777777777777|9--9h10p9779h10p7|
|------------|------------|------------|-----------------|
|------------|------------|------------|-----------------|
|
|
|EEEEEEEEEEEE|EEEEEEEEEEEE|EEEEEEEEEEEE|EEEEEEEEEEEE|
|------------|------------|------------|------------|
|------------|------------|------------|------------|
|------------|------------|------------|------------|
|777777777777|333333333333|777777777777|333333333333|
|777777777777|333333333333|777777777777|333333333333|
|555555555555|111111111111|555555555555|111111111111|


|EEEEEEEEEEEE|Q. E  E EQEE  E E|EEEEEEEEEEEE|Q. E  E EQEE  E E|
|------------|-----------------|------------|-----------------|
|------------|-----------------|------------|-----------------|
|------------|-----------------|------------|-----------------|
|777777777777|9--9h10p9779h10p7|777777777777|9--9h10p9779h10p7|
|------------|-----------------|------------|-----------------|
|------------|-----------------|------------|-----------------|
|
|
|EEEEEEEEEEEE|EEEEEEEEEEEE|EEEEEEEEEEEE|EEEEEEEEEEEE|
|------------|------------|------------|------------|
|------------|------------|------------|------------|
|------------|------------|------------|------------|
|777777777777|333333333333|777777777777|333333333333|
|777777777777|333333333333|777777777777|333333333333|
|555555555555|111111111111|555555555555|111111111111|


|EEEEEEEEEEEE|Q. E  E EQEE  E E|EEEEEEEEEEEE|Q. E  E EQEE  E E|
|------------|-----------------|------------|-----------------|
|------------|-----------------|------------|-----------------|
|------------|-----------------|------------|-----------------|
|777777777777|9--9h10p9779h10p7|777777777777|9--9h10p9779h10p7|
|------------|-----------------|------------|-----------------|
|------------|-----------------|------------|-----------------|
|
|
|EEEEEEEEEEEE|EEEEEEEEEEEE|EEEEEEEEEEEE|EEEEEEEEEEEE|
|------------|------------|------------|------------|
|------------|------------|------------|------------|
|------------|------------|------------|------------|
|777777777777|333333333333|777777777777|333333333333|
|777777777777|333333333333|777777777777|333333333333|
|555555555555|111111111111|555555555555|111111111111|


|EEEEEEEEEEEE|Q. E  E EQEE  E E|EEEEEEEEEEEE|Q. E  E EQEE  E E|
|------------|-----------------|------------|-----------------|
|------------|-----------------|------------|-----------------|
|------------|-----------------|------------|-----------------|
|777777777777|9--9h10p9779h10p7|777777777777|9--9h10p9779h10p7|
|------------|-----------------|------------|-----------------|
|------------|-----------------|------------|-----------------|
|
|
|EEEEEEEEEEEE|EEEEEEEEEEEE|EEEEEEEEEEEE|EEEEEEEEEEEE|
|------------|------------|------------|------------|
|------------|------------|------------|------------|
|------------|------------|------------|------------|
|777777777777|333333333333|777777777777|333333333333|
|777777777777|333333333333|777777777777|333333333333|
|555555555555|111111111111|555555555555|111111111111|


|W.          |W.          |W.          |W.          |W     +Q. SS|H..         *|
|------------|------------|------------|------------|------------|------------*|
|------------|------------|------------|------------|------------|------------*|
|------------|------------|------------|------------|------------|------------*|
|7-----------|7-----------|7-----------|7-----------|7-----(7)-77|7/0---------*|
|------------|------------|------------|------------|------------|------------*|
|------------|------------|------------|------------|------------|------------*|
|
|
|W.          |W.          |W.          |W.          |W     +Q. SS|H..         *|
|------------|------------|------------|------------|------------|------------*|
|------------|------------|------------|------------|------------|------------*|
|------------|------------|------------|------------|------------|------------*|
|7-----------|7-----------|7-----------|7-----------|7-----(7)-77|7/0---------*|
|7-----------|7-----------|7-----------|7-----------|7-----(7)-77|7/0---------*|
|5-----------|5-----------|5-----------|5-----------|5-----(5)-55|5/0---------*|



Duration Legend
---------------
W - whole; H - half; Q - quarter; E - 8th; S - 16th; T - 32nd; X - 64th; a - acciaccatura
+ - note tied to previous; . - note dotted; .. - note double dotted
Uncapitalized letters represent notes that are staccato (1/2 duration)
Irregular groupings are notated above the duration line
Duration letters will always appear directly above the note/fret number it represents the
duration for.  Duration letters with no fret number below them represent rests.  Multi-
bar rests are notated in the form Wxn, where n is the number of bars to rest for.  Low
melody durations appear below the staff

Tablature Legend
----------------
 h   - hammer-on
 p   - pull-off
 b   - bend
 pb  - pre-bend
 r   - bend release (if no number after the r, then release immediately)
 /\  - slide into or out of (from/to "nowhere")
 s   - legato slide
 S   - shift slide
  - natural harmonic
[n]  - artificial harmonic
n(n) - tapped harmonic
 ~   - vibrato
 tr  - trill
 T   - tap
 TP  - trem. picking
 PM  - palm muting
\n/  - tremolo bar dip; n = amount to dip
 \n  - tremolo bar down
 n/  - tremolo bar up
/n\  - tremolo bar inverted dip
 =   - hold bend; also acts as connecting device for hammers/pulls
 <>  - volume swell (louder/softer)
 x   - on rhythm slash represents muted slash
 o   - on rhythm slash represents single note slash

Misc Legend
-----------
 |  - bar
||  - doublen bar
||o - repeat start
o|| - repeat end
 x? - repeat number of times
*|  - double bar (ending)
 :  - bar (freetime)
 $  - Segno
 &  - Coda
Tempo markers -  = BPM(8/16=s8/s16), where s8 = swing 8ths, s16 = swing 16ths
comments
We did not receive enough feedback on this tab! Please rate:
print report bad tab
1 2 3 4 5
I want to post or [tab]
guest
You may want to rate the tab now too:
select rating
Please do not post tabs as comments. Select "correction" instead!