Oops, an error
Loading. Please wait.

Cataclysm Children Tab

ver3
ver3

Whole song

Interactive

More versions @911Tabs.com
236 views 1 this week
no commentswrite comment
1 2 3 4 5
excellent!
x 2
add to favorites launch autoscroll
font size
0
reset
Autoscroll
+/-
esc
set tempo
stop
Contributor
WARNING: You are trying to view
                                    content from Ultimate-Guitar.com
                                    in an unauthorized application,
                                    which is prohibited.

                                    Please use an official Ultimate
                                    Guitar Tabs application for iPhone,
                                    iPad or Android to access legitimate
                                    chords, guitar, bass, and drum tabs
                                    from Ultimate-Guitar.com database.

                                    Type "ultimate guitar tabs" in Apple
                                    App Store's or Android Market's
                                    search to find the application.
dimmu borgir
cataclysm children

standard tuning

*=palm mute
tr~=trill

tabbed by andherembrace

L
--------------------------------------------------------------------------|
--------------------------------------------------------------------------|
--------------------------------------------------------------------------|
------------------------------------------------------------------12-11-8-|
-6-5-8-5-2--------------------------------------------------------10-9--6-|
-4-3-6-3-0|-------------------------------------------------------10-9--6-|
 * * * * *                                                         * *  * 
R
--------------------------------------------------------------------------|
--------------------------------------------------------------------------|
---------------------9-9----------------------------9-9-----------12-11-8-|
---------------------9-9----------------------------9-9-----------12-11-8-|
-6-5-8-5-2-----------7-7-----------6-5-5-8----------7-7-----------10\9--6-|
-4-3-6-3-0|-00000000------00000000-4\3-3/6-00000000------00000000---------|
 * * * * *  ********      ********         ********      ********   



-----------------------------------------------------------------|
-----------------------------------------------------------------|
-----------------------------------------------------------------|
-----------------------------------------------------------------|
---------------------------------------------------------6-5-8-5-|
-000-000-000-000-000-000-000-000-000-000-000-000-000-000-4-3-6-3-|
 *** *** *** *** *** *** *** *** *** *** *** *** *** *** * * * *
R
-----------------------------------------------------------------|
-----------------------------------------------------------------|
------------9-9----------------------------9-9-------------------|
------------9-9----------------------------9-9-----------6-5-8-5-|
------------7-7-----------6-5-5-8----------7-7-----------6-5-8-5-|
--00000000-------00000000-4\3-3/6-00000000------00000000-4-3-6-3-|
  ********       ********         ********      ******** * * * *

0:11
B
-----------------------------------------------------------------|
-----------------------------------------------------------------|
------------9-9----------------------------9-9-----------12-11-8-|
------------9-9----------------------------9-9-----------12-11-8-|
------------7-7-----------6-5-5-8----------7-7-----------10\9--6-|
--00000000------00000000--4\3-3/6-00000000------00000000---------|
  ********      ********          ********      ********   
-----------------------------------------------------------------|
-----------------------------------------------------------------|
------------9-9----------------------------9-9-------------------|
------------9-9----------------------------9-9-------------------|
------------7-7-----------6-5-5-8----------7-7-----------6-5-8-5-|
--00000000-------00000000-4\3-3/6-00000000------00000000-4-3-6-3-|
  ********       ********         ********      ******** * * * *

-----------------------------------------------------------------|
-----------------------------------------------------------------|
------------9-9----------------------------9-9-----------12-11-8-|
------------9-9----------------------------9-9-----------12-11-8-|
------------7-7-----------6-5-5-8----------7-7-----------10\9--6-|
--00000000------00000000--4\3-3/6-00000000------00000000---------|
  ********      ********          ********      ********   
-----------------------------------------------------------------|
-----------------------------------------------------------------|
------------9-9----------------------------9-9-------------------|
------------9-9----------------------------9-9-------------------|
------------7-7-----------6-5-5-8----------7-7-----------6-5-8-5-|
--00000000-------00000000-4\3-3/6-00000000------00000000-4-3-6-3-|
  ********       ********         ********      ******** * * * *



0:33
L
--------------------------------------------------------------------------|
--------------------------------------------------------------------------|
3-33-3-33-3-33-23-6-66-6-66-6-5-55-32-3-33-3-33-3-33-2-3-6-66-6-66-6------|
5-55-5-55-5-55-45-8-88-8-88-8-7-77-54-5-55-5-55-5-55-4-5-8-88-8-88-8-7-6-7|
---------------------------------------------------------------------5-4-5|
---------------------------------------------------------------------5-4-5|
R
--------------------------------------------------------------------------|
--------------------------------------------------------------------------|
--------------------------------------------------------------------------|
---------------------------------------------------------------------7-6-7|
-5----------------------------------5-4-5----------------------------5-4-5|
-3-|--------------------------------3-2-3----------------------------5-4-5|


B
-------------------------------------------------------------------|
-------------------------------------------------------------------|
-------------------------0-0-0-1-------------------------1-1-1-0---|
-------------------------2-2-2-3-------------------------3-3-3-2---|
-2-2-2-2-2-2-3-2-2-2-2-2---------2-2-2-2-2-2-3-2-2-2-2-2-----------|
-0-0-0-0-0-0-1-0-0-0-0-0---------0-0-0-0-0-0-1-0-0-0-0-0-----------|
 * * * * *       * * * *         * * * * *       * * * *            

-------------------------------------------------------------------|
-------------------------------------------------------------------|
-------------------------0-0-0-1-------------------------0-1-0-1-0-|
-------------------------2-2-2-3-------------------------2-3-2-3-2-|
-2-2-2-2-2-2-3-2-2-2-2-2---------2-2-2-2-2-2-3-2-3-3-3-3-----------|
-0-0-0-0-0-0-1-0-0-0-0-0---------0-0-0-0-0-0-1-0-1-1-1-1-----------|
 * * * * *       * * * *         * * * * *       * * * *            

-------------------------------------------------------------------|
-------------------------------------------------------------------|
-------------------------0-0-0-1-------------------------1-1-1-0---|
-------------------------2-2-2-3-------------------------3-3-3-2---|
-2-2-2-2-2-2-3-2-2-2-2-2---------2-2-2-2-2-2-3-2-2-2-2-2-----------|
-0-0-0-0-0-0-1-0-0-0-0-0---------0-0-0-0-0-0-1-0-0-0-0-0-----------|
 * * * * *       * * * *         * * * * *       * * * *            

-------------------------------------------------------------------|
-------------------------------------------------------------------|
-------------------------0-0-0-1-------------------------0-1-0-1-0-|
-------------------------2-2-2-3-------------------------2-3-2-3-2-|
-2-2-2-2-2-2-3-2-2-2-2-2---------2-2-2-2-2-2-3-2-3-3-3-3-----------|
-0-0-0-0-0-0-1-0-0-0-0-0---------0-0-0-0-0-0-1-0-1-1-1-1-----------|
 * * * * *       * * * *         * * * * *       * * * *            

-------------------------------------------------------------------|
-------------------------------------------------------------------|
-------------------------0-0-0-1-------------------------1-1-1-0---|
-------------------------2-2-2-3-------------------------3-3-3-2---|
-2-2-2-2-2-2-3-2-2-2-2-2---------2-2-2-2-2-2-3-2-2-2-2-2-----------|
-0-0-0-0-0-0-1-0-0-0-0-0---------0-0-0-0-0-0-1-0-0-0-0-0-----------|
 * * * * *       * * * *         * * * * *       * * * *            

-------------------------------------------------------------------|
-------------------------------------------------------------------|
-------------------------0-0-0-1-------------------------0-1-0-1-0-|
-------------------------2-2-2-3-------------------------2-3-2-3-2-|
-2-2-2-2-2-2-3-2-2-2-2-2---------2-2-2-2-2-2-3-2-3-3-3-3-----------|
-0-0-0-0-0-0-1-0-0-0-0-0---------0-0-0-0-0-0-1-0-1-1-1-1-----------|
 * * * * *       * * * *         * * * * *       * * * *            

-------------------------------------------------------------------|
-------------------------------------------------------------------|
-------------------------0-0-0-1-------------------------1-1-1-0---|
-------------------------2-2-2-3-------------------------3-3-3-2---|
-2-2-2-2-2-2-3-2-2-2-2-2---------2-2-2-2-2-2-3-2-2-2-2-2-----------|
-0-0-0-0-0-0-1-0-0-0-0-0---------0-0-0-0-0-0-1-0-0-0-0-0-----------|
 * * * * *       * * * *         * * * * *       * * * *            

-------------------------------------------------------------------|
-------------------------------------------------------------------|
-------------------------0-0-0-1-------------------------0-1-0-1---|
-------------------------2-2-2-3-------------------------2-3-2-3---|
-2-2-2-2-2-2-3-2-2-2-2-2---------2-2-2-2-2-2-3-2-3-3-3-3-----------|
-0-0-0-0-0-0-1-0-0-0-0-0---------0-0-0-0-0-0-1-0-1-1-1-1-----------|
 * * * * *       * * * *         * * * * *       * * * *            


1:21
B
-----------------------------------------------------------------|
-----------------------------------------------------------------|
------------9-9----------------------------9-9-----------12-11-8-|
------------9-9----------------------------9-9-----------12-11-8-|
------------7-7-----------6-5-5-8----------7-7-----------10\9--6-|
--00000000------00000000--4\3-3/6-00000000------00000000---------|
  ********      ********          ********      ********   
-----------------------------------------------------------------|
-----------------------------------------------------------------|
------------9-9----------------------------9-9-------------------|
------------9-9----------------------------9-9-------------------|
------------7-7-----------6-5-5-8----------7-7-----------6-5-8-5-|
--00000000-------00000000-4\3-3/6-00000000------00000000-4-3-6-3-|
  ********       ********         ********      ******** * * * *

-----------------------------------------------------------------|
-----------------------------------------------------------------|
------------9-9----------------------------9-9-----------12-11-8-|
------------9-9----------------------------9-9-----------12-11-8-|
------------7-7-----------6-5-5-8----------7-7-----------10\9--6-|
--00000000------00000000--4\3-3/6-00000000------00000000---------|
  ********      ********          ********      ********   
-----------------------------------------------------------------|
-----------------------------------------------------------------|
------------9-9----------------------------9-9-------------------|
------------9-9----------------------------9-9-------------------|
------------7-7-----------6-5-5-8----------7-7-----------6-5-8-5-|
--00000000-------00000000-4\3-3/6-00000000------00000000-4-3-6-3-|
  ********       ********         ********      ******** * * * *

1:41
-----------------------------------------------------------------|
-----------------------------------------------------------------|
-----------------------------------------------------------------|
---------------4-3-3-3-3-3-4-3-4---------------------------------|
-2-2-2-2-5-2-2-2-1-1-1-1-1-2-1-2-2-2-2-2-5-2-2-5-4-4-4-4-5-4-5-4-|
-0-0-0-0-3-0-0-------------------0-0-0-0-3-0-0-3-2-2-2-2-3-2-3-2-|
   * * *     *     * * * *       * * * *     *     * * *       
-----------------------------------------------------------------|
-----------------------------------------------------------------|
-----------------------------------------------------------------|
---------------4-3-3-3-3-3-4-3-4---------------------------------|
-2-2-2-2-5-2-2-2-1-1-1-1-1-2-1-2-2-2-2-2-5-2-2-5-4-4-4-4-5-4-5-4-|
-0-0-0-0-3-0-0-------------------0-0-0-0-3-0-0-3-2-2-2-2-3-2-3-2-|
   * * *     *     * * * *       * * * *     *     * * *       
-----------------------------------------------------------------|
-----------------------------------------------------------------|
-----------------------------------------------------------------|
---------------4-3-3-3-3-3-4-3-4---------------------------------|
-2-2-2-2-5-2-2-2-1-1-1-1-1-2-1-2-2-2-2-2-5-2-2-5-4-4-4-4-5-4-5-4-|
-0-0-0-0-3-0-0-------------------0-0-0-0-3-0-0-3-2-2-2-2-3-2-3-2-|
   * * *     *     * * * *       * * * *     *     * * *       
-----------------------------------------------------------------|
-----------------------------------------------------------------|
-----------------------------------------------------------------|
---------------4-3-3-3-3-3-4-3-4---------------------------------|
-2-2-2-2-5-2-2-2-1-1-1-1-1-2-1-2-2-2-2-2-5-2-2-5-4-4-4-4-5-4-5-4-|
-0-0-0-0-3-0-0-------------------0-0-0-0-3-0-0-3-2-2-2-2-3-2-3-2-|
   * * *     *     * * * *       * * * *     *     * * *       


2:03
L                                                             B
----------------------------------------------------------------------|
----------------------------------------------------------------------|
------------------------------3-------------------------------3-------|
--------------------------------------------------------------5-------|
----------------------------4---4-----------------------------5-4-3-2-|
-0-0000000--0000000--000000--------0-0000000--0000000--000000-3-2-1-0-|
 * *******  *******  ******        * *******  *******  ******   * * * 
 L                                                    B
----------------------------------------------------------------------|
----------------------------------------------------------------------|
------------------------------3---------------------------0-------3---|
--------------------------------------------------------2---2---5---5-|
----------------------------4---4---------------------1-------4-------|
-0-0000000--0000000--000000--------0-0000000--0000000-----------------|
 * *******  *******  ******        * *******  *******   


--------------------------------------------------------------------|
--------------------------------------------------------------------|
----------3-------------------3-------------3----------------3------|
----------2---------------------------------2----------------5------|
-2--------0-----------------4---4--2--------0----------------5-4-3--|
-0-000000----00000000000000--------0-000000---00000000000000-3-2-1--|
   ******    **************          ******   **************   * *


---------------------------------------------------------------------------|
---------------------------------------------------------------------------|
----------3-------------------3-------------3----------0----3----6------9--|
----------2---------------------------------2---------2-2--5-5--8-8---11-11|
-2--------0-----------------4---4--2--------0--------1----4----7----10-----|
-0-000000----00000000000000--------0-000000---000000-----------------------|
   ******    **************          ******   ******


--------------------------------------------------------------------|
--------------------------------------------------------------------|
----------3-------------------3-------------3-----------------------|
----------2---------------------------------2-----------------------|
-2--------0-----------------4---4--2--------0----------------5-4-3--|
-0-000000----00000000000000--------0-000000---00000000000000-3-2-1--|
   ******    **************          ******   ************** * * * 


----------------------------------------------------------------|
----------------------------------------------------------------|
----------3-------------------3-------------3----------0----3---|
----------2---------------------------------2---------2-2--5-5--|
-2--------0-----------------4---4--2--------0--------1----4-----|
-0-000000----00000000000000--------0-000000---000000------------|
   ******    **************          ******   ******


--------------------------------------------------------------------|
--------------------------------------------------------------------|
----------3-------------------3-------------3----------------3------|
----------2---------------------------------2----------------5------|
-2--------0-----------------4---4--2--------0----------------5-4-3--|
-0-000000----00000000000000--------0-000000---00000000000000-3-2-1--|
   ******    **************          ******   **************   * *

-------------------------------------------------------------------------|
-------------------------------------------------------------------------|
----------3-------------------3-------------3----------0----3----6------9|
----------2---------------------------------2---------2-2--5-5--8-8---11-|
-2--------0-----------------4---4--2--------0--------1----4----7----10---|
-0-000000----00000000000000--------0-000000---000000---------------------|
   ******    **************          ******   ******


2:49
-----------------------------------------------|
-----------------------------------------------|
-----------------------------------------------|
-9----5-----7---9--------9----5-----7---9------|
-9----5-----5---7--2-----9----5-----5---7--2---|
-7----3-----5---7-\0-----7----3-----5---7-\0---|

-----------------------------------------------|
-----------------------------------------------|
-----------------------------------------------|
-9----5-----7---9--------9----5-----7---9------|
-9----5-----5---7--2-----9----5-----5---7--2---|
-7----3-----5---7-\0-----7----3-----5---7-\0---|

-----------------------------------------------|
-----------------------------------------------|
-----------------------------------------------|
-9----5-----7---9--------9----5-----7---9------|
-9----5-----5---7--2-----9----5-----5---7--2---|
-7----3-----5---7-\0-----7----3-----5---7-\0---|

-----------------------------------------------|
-----------------------------------------------|
-----------------------------------------------|
-9----5-----7---9--------9----5-----7---9-9----|
-9----5-----5---7--2-----9----5-----5---7-7-2--|
-7----3-----5---7-\0-----7----3-----5---7-7-0--|
                                        * *


3:40
-----------------------------------------------|
-----------------------------------------------|
-----------------------------------------------|
-8-8-8-8-8-8------8----8-8-8------------8-8-8--|
-6-6-6-6-6-6--2---6----6-6-6--2-2-2-tr~-6-6-6--|
-6-6-6-6-6-6--0---6----6-6-6--0-0-0-6-7-6-6-6--|
 * * * * * *           * * * -* * *     * * *               

-----------------------------------|
-----------------------------------|
-----------------------------------|
------8----8-8-8------------8-8-8--|
--2---6----6-6-6--2-2-2-tr~-6-6-6--|
--0---6----6-6-6--0-0-0-6-7-6-6-6--|

-----------------------------------|
-----------------------------------|
-----------------------------------|
------8----8-8-8------------8-8-8--|
--2---6----6-6-6--2-2-2-tr~-6-6-6--|
--0---6----6-6-6--0-0-0-6-7-6-6-6--|

-----------------------------------|
-----------------------------------|
-----------------------------------|
------8----8-8-8------------8-8-8--|
--2---6----6-6-6--2-2-2-tr~-6-6-6--|
--0---6----6-6-6--0-0-0-6-7-6-6-6--|


4:03
B
-------------------------------------------------------------------|
-------------------------------------------------------------------|
-------------------------0-0-0-1-------------------------1-1-1-0---|
-------------------------2-2-2-3-------------------------3-3-3-2---|
-2-2-2-2-2-2-3-2-2-2-2-2---------2-2-2-2-2-2-3-2-2-2-2-2-----------|
-0-0-0-0-0-0-1-0-0-0-0-0---------0-0-0-0-0-0-1-0-0-0-0-0-----------|
 * * * * *       * * * *         * * * * *       * * * *            

-------------------------------------------------------------------|
-------------------------------------------------------------------|
-------------------------0-0-0-1-------------------------0-1-0-1-0-|
-------------------------2-2-2-3-------------------------2-3-2-3-2-|
-2-2-2-2-2-2-3-2-2-2-2-2---------2-2-2-2-2-2-3-2-3-3-3-3-----------|
-0-0-0-0-0-0-1-0-0-0-0-0---------0-0-0-0-0-0-1-0-1-1-1-1-----------|
 * * * * *       * * * *         * * * * *       * * * *            
B
-------------------------------------------------------------------|
-------------------------------------------------------------------|
-------------------------0-0-0-1-------------------------1-1-1-0---|
-------------------------2-2-2-3-------------------------3-3-3-2---|
-2-2-2-2-2-2-3-2-2-2-2-2---------2-2-2-2-2-2-3-2-2-2-2-2-----------|
-0-0-0-0-0-0-1-0-0-0-0-0---------0-0-0-0-0-0-1-0-0-0-0-0-----------|
 * * * * *       * * * *         * * * * *       * * * *            

---------------------------------------------------------------|
---------------------------------------------------------------|
-------------------------0-0-0-1-------------------------------|
-------------------------2-2-2-3-------------------------4--11-|
-2-2-2-2-2-2-3-2-2-2-2-2---------2-2-2-2-2-2-3-2--2---5--2---9-|
-0-0-0-0-0-0-1-0-0-0-0-0---------0-0-0-0-0-0-1-0--0---3--------|
 * * * * *       * * * *         * * * * *                  


RYTHM REPEATS TILL END
-----------------------------------------------|
-----------------------------------------------|
-----------------------------------------------|
-9----5-----7---9--------9----5-----7---9------|
-9----5-----5---7--2-----9----5-----5---7--2---|
-7----3-----5---7-\0-----7----3-----5---7-\0---|


SOLO
-------------------------------_----------------------------------------|
------------------------------/ \-----------__----------17--------------|
---------------11-12-/16---15-16-15--------/  \---PH------16-12---------|
----------9-12----------------------17---16-17-16-14-----------14-9-----|
--------9----------------------------------------------------------10---|
-0-7-10--------------------------------------------------------------12-|
 * * *  *           

-------------------------------------------------------------------|
-------------------------------------------------------------------|
----------------------7---7-9--11-9-11-12--------------------------|
------------9-8-9-11---11------------------------------------------|
-------------------------------------------------------10-10-10-10-|
-10-9-10-12--------------------------------12-12-12-12-------------|
  * *  *  *                                 *  *  *  *  *  *  *  *

-----------------------------------------------------------------|
-----------------------------------------11-11-11-11--14-14-14-14|
---------9-9-9-9-11-11-11-11-12-12-12-12-------------------------|
-9-9-9-9---------------------------------------------------------|
-----------------------------------------------------------------|
-----------------------------------------------------------------|
 * * * * * * * *  *  *  *  *  *  *  *  *  *  *  *  *  * * * *

                   __                __                __
---^--------------/  \--------------/  \--------------/  \--------------|
-15-14----------14-15-14----------14-15-14----------14-15-14----------14|
-------16-15-16----------16-15-16----------16-15-16----------16-15-16---|
------------------------------------------------------------------------|
------------------------------------------------------------------------|
------------------------------------------------------------------------|
                   __
   ^              /  \
-15-14----------14-15-14----------14----|
-------17-16-17----------17-16-17----17-|
----------------------------------------|
----------------------------------------|
----------------------------------------|
----------------------------------------|



---------------------------------------------------------------------|
---------------------------------------------------------------------|
-7---6-7-6-----7-9-1112------12-11--12--7---6-7-6--------------------|
-x---x-x-x-9---x-x-x--x-------x--x---x--x---x-x-x-9--7-9-7--5----7-5-|
-5---4/5\4-x---5-7-9-10\--2--10--9--10--5---4/5\4-x--x-x-x--x----x-x-|
-----------7--------------0-----------------------7--5/7\5--3----5-3-|

------------------------------12-7----------------------------------|
-----------------------------------8--------------------------------|
-7---6-7-6-----7-9-1112--------------9---------7---6-7-6-----7-9-11-|
-x---x-x-x-9---x-x-x--x----------------9-------x---x-x-x-9---x-x-x--|
-5---4/5\4-x---5-7-9-10\--2-------------10-7---5---4/5\4-x---5-7-9--|
-----------7--------------0------------------------------7----------|


---^-----^-----^-----^-----^-----^-----^-----^-----^-----^-----^-----^---|
-14-11-14-11-14-11-14-11-14-11-14-11-17-14-17-14-17-14-17-14-17-14-17-14-|
-------------------------------------------------------------------------|
-------------------------------------------------------------------------|
-------------------------------------------------------------------------|
-------------------------------------------------------------------------|

   ^     ^     ^     ^     ^     ^     ^     ^     ^     ^     ^     ^  
-15-12-15-12-15-12-15-12-15-12-15-12-18-15-18-15-18-15-18-15-18-15-18-15-|
-------------------------------------------------------------------------|
-------------------------------------------------------------------------|
-------------------------------------------------------------------------|
-------------------------------------------------------------------------|
-------------------------------------------------------------------------|

---------------------------------------------------------------|
---------------------------------------------------------------|
---------------------------------------------------------------|
-9-9-9---------------------------------------------------------|
-7-7-7---------------------------------------------------------|
-7-7-7\--------------------------------------------------------|
 * *

comments
We did not receive enough feedback on this tab! Please rate:
print report bad tab
1 2 3 4 5
I want to post or [tab]
guest
You may want to rate the tab now too:
select rating
Please do not post tabs as comments. Select "correction" instead!